Tea Party - Turn The Lamp Down Low Chords & Tabs

 

Turn The Lamp Down Low Chords & Tabs

Tea Party Chords & Tabs

Version: 3 Type: Tab 0 ratings
1 star 2 stars 3 stars 4 stars 5 stars
comments

Turn The Lamp Down Low Tab

Turn The Lamp Down Low - Tea Party

standard tuning

-------------------------------------------------
-------------------------------------------------
--1------1----1------1---1------1---1------1-----
---0-0-0-------0-0-0------0-0-0------0-0-0-------
----2-2-2-------2-2-2------2-2-2------2-2-2------
-0-----------0----------0----------0-------------


-------------------------------------------------
-------------------------------------------------
--1------1---1------1---1------1---1------1------
---0-0-0------0-0-0------0-0-0------0-0-0--------
----2-2-2------2-2-2------2-2-2------2-2-2-------
-0----------0----------0----------0--------------


-------------------------------------------------
-------------------------------------------------
--1------1---1------1---1------1---1------1------
---0-0-0------0-0-0------0-0-0------0-0-0--------
----2-2-2------2-2-2------2-2-2------2-2-2-------
-0----------0----------0----------0--------------

1:06
-------------------------------------------------
-------------------------------------------------
-------------------------------------------------
-2h--2h------------------------------------------
-2h--2h------------------------------------------
-----3h------------------------------------------


-------------------------------------------------
-------------------------------------------------
--1------1---1------1---1------1---1------1------
---0-0-0------0-0-0------0-0-0------0-0-0--------
----2-2-2------2-2-2------2-2-2------2-2-2-------
-0----------0----------0----------0--------------


-------------------------------------------------
-------------------------------------------------
--1------1---1------1---1------1---1------1------
---0-0-0------0-0-0------0-0-0------0-0-0--------
----2-2-2------2-2-2------2-2-2------2-2-2-------
-0----------0----------0----------0--------------


----------------------------
----------------------------
--1------1---1------1-------
---0-0-0------0-0-0---------
----2-2-2------2-2-2--------
-0----------0---------------


-------------
-------------
-------------
-2h--2h------
-2h--2h------
-----3h------


---------------------------
---------------------------
--1------1---1------1------
---0-0-0------0-0-0--------
----2-2-2------2-2-2-------
-0----------0--------------


-------------
-------------
-------------
-2h--2h------
-2h--2h------
-----3h------


-------------------------------------------------
-------------------------------------------------
--1------1---1------1---1------1---1------1------
---0-0-0------0-0-0------0-0-0------0-0-0--------
----2-2-2------2-2-2------2-2-2------2-2-2-------
-0----------0----------0----------0--------------

[ Tab from: http://www.guitartabs.cc/tabs/t/tea_party/turn_the_lamp_down_low_tab_ver_3.html ]
-------------------------------------------------
-------------------------------------------------
--1------1---1------1---1------1---1------1------
---0-0-0------0-0-0------0-0-0------0-0-0--------
----2-2-2------2-2-2------2-2-2------2-2-2-------
-0----------0----------0----------0--------------


---------------------------
---------------------------
--1------1---1------1------
---0-0-0------0-0-0--------
----2-2-2------2-2-2-------
-0----------0--------------


--------------
--------------
--------------
-2h--2h-------
-2h--2h-------
-----3h-------


---------------------------
---------------------------
--1------1---1------1------
---0-0-0------0-0-0--------
----2-2-2------2-2-2-------
-0----------0--------------


--------------
--------------
--------------
-2h--2h-------
-2h--2h-------
-----3h-------

heavy solo

-0r----------0--0r----------0--0r----------------
---3---------0----3---------0----3---------------
----2--------0-----2--------0-----2--------------
-------2-2-2-0--------2-2-2-0--------2-2-2-2-2-2-
-------2-2-2-0--------2-2-2-0--------2-2-2-2-2-2-
---------3---0----------3---0----------3---3---3-


-0r----------0--0r----------0--0r----------------
---3---------0----3---------0----3---------------
----2--------0-----2--------0-----2--------------
-------2-2-2-0--------2-2-2-0--------2-2---------
-------2-2-2-0--------2-2-2-0--------2-2---------
---------3---0----------3---0----------3---------


-------------------------------------------------
-------------------------------------------------
-------------------------------------------------
-2-2-2-2-2-2-2-2-2-2-2-2-2-2-2-2-2-2r------------
-2-2-2-2-2-2-2-2-2-2-2-2-2-2-2-2-2-2r------------
---3---3---3---3---3---3---3---3---3r------------


-------------------------------------------------
-------------------------------------------------
--1------1---1------1---1------1---1------1------
---0-0-0------0-0-0------0-0-0------0-0-0--------
----2-2-2------2-2-2------2-2-2------2-2-2-------
-0----------0----------0----------0--------------


-------------------------------------------------
-------------------------------------------------
--1------1---1------1---1------1---1------1------
---0-0-0------0-0-0------0-0-0------0-0-0--------
----2-2-2------2-2-2------2-2-2------2-2-2-------
-0----------0----------0----------0--------------



-------------------------------------------------
-------------------------------------------------
--1------1---1------1---1------1---1------1------
---0-0-0------0-0-0------0-0-0------0-0-0--------
----2-2-2------2-2-2------2-2-2------2-2-2-------
-o----------0----------0----------0--------------

solo
3:52
-0r--------0--0r--------0--0r--------------------
---3-------0----3-------0----3-------------------
----2------0-----2------0-----2------------------
-------2-2-0--------2-2-0--------2-2-2-2-2-2-2-2-
-------2-2-0--------2-2-0--------2-2-2-2-2-2-2-2-
---------3-0----------3-0----------3---3---3---3-


-------------------------------------------------
-------------------------------------------------
-------------------------------------------------
-2-2-2-2-2-2-2-2-2-2-2-2-2-2-2-2-2-2-2-2-2-2-2-2-
-2-2-2-2-2-2-2-2-2-2-2-2-2-2-2-2-2-2-2-2-2-2-2-2-
---3---3---3---3---3---3---3---3---3---3---3---3-




Comments