Tea Party - The Messenger Chords & Tabs

 

The Messenger Chords & Tabs

Tea Party Chords & Tabs

Version: 1 Type: Tab 0 ratings
1 star 2 stars 3 stars 4 stars 5 stars
comments

The Messenger Tab

   
song: the Messenger
band: the tea party

tabbed by jimmy

Now i really like this song so i thought i would sit down for a while
to try and figure out how to play it. Anyway after a while i came 
up with this. it sounds right when i play it so i hope its good
[ Tab from: http://www.guitartabs.cc/tabs/t/tea_party/the_messenger_tab.html ]
Intro/verse
E-------------------------------------------------------------
B-------------------------------------------------------------
G-------------------------------------------------------------
D--9-9---4-4-4-4-4--5-5-5-5-5--7-7-7-7-7----------------------
A--9-9---4-4-4-4-4--5-5-5-5-5--7-7-7-7-7----------------------
E--9-9---4-4-4-4-4--5-5-5-5-5--7-7-7-7-7----------------------
   d d   u d d d d  u d d d d  u d u d d 


Now thats pretty much it!! It sounds right when i play it.
The struming mite be a little out but there the chords you
strum anyway.

For the chorus i'm pretty sure the chords you play are just

E--------------------------------------------
B--------------------------------------------  i dont know how many
G--------------------------------------------  times to play it but 
D--0--5--0--7---------------------------------  it sounds right.
A--0--5--0--7---------------------------------
B--0--5--0--7---------------------------------

hope you like it
Jimmy
Comments