Tea Party - The Messenger Chords & Tabs

 

The Messenger Chords & Tabs

Tea Party Chords & Tabs

Version: 2 Type: Bass Tab 0 ratings
1 star 2 stars 3 stars 4 stars 5 stars
comments

The Messenger Bass Tab

Song: The Messenger
Artist: The Tea Party
Album: TRIPtych

Tabbed By: Vinnie (Vinnie@4Moes.com    www.4Moes.com)

Rest 8 bars (Guitar Intro)

Verse (Main Riff)
4x
G ---------------------
D ---------------------
A -2--2----------------
E ------2-2--3--3--5-5-
B ---------------------

1x 
G ------------------------
D ------------------------
A -5--5-------------------
E -------3--3--------5--5-
B -------------3--3-------

2x (2nd Verse only play 1x)
G ---------------------
D ---------------------
A -2--2----------------
E ------2-2--3--3--5-5-
B ---------------------

-- Repeat Verse --

Bridge to Interlude (about 1:53)
[ Tab from: http://www.guitartabs.cc/tabs/t/tea_party/the_messenger_btab_ver_2.html ]
G ---------------------
D ---------------------
A ---------------------
E -5---------5---------
B ---------------------

Interlude

2x
G ---------------------
D ---------------------
A ---------------------
E -3------2--0----5----
B ---------------------
                  ^ Hold for another bar

2x
G ---------------------
D ---------------------
A -2--2----------------
E ------2-2--3--3--5-5-
B ---------------------

-- Repeat Verse --

Outro

1x
G ---------------------
D ---------------------
A -2--2----------------
E ------2-2--3--3--5-5-
B ---------------------

1x
G ---------------------
D -(7)-----------------
A -(7)-----------------
E --5------------------
B ---------------------
   ^ Hold Indefinate

This tab is simple, that is why it is my first submitted.  Any comments
or corrections, send them to Vinnie@4Moes.com. 
Comments