Tea Party - Stargazer Chords & Tabs

 

Stargazer Chords & Tabs

Tea Party Chords & Tabs

Version: 1 Type: Tab 0 ratings
1 star 2 stars 3 stars 4 stars 5 stars
comments

Stargazer Tab

Stargazer- The Tea Party

Tabbed by Tyler Greig
E-mail: gtheleadguitarist@hotmail.com

DROP D TUNING


Intro 
|----------------------------------------|
|----------------------------------------|
|-9----11----7---------------------------|
|-9----11----7----7---2/4-2/4-2/7-6-4-2--|
|-7-----9----5----7---2/4-2/4-2/7-6-4-2--|
|-----------------7---2/4-2/4-2/7-6-4-2--|

Other Intro Part
|-20v~--16-\14~---16-\14~---16v-\12~-|
|------------------------------------|
|------------------------------------|
|------------------------------------|
|------------------------------------|
|------------------------------------|

Verse 1
|---------------------|---------------|
|---------------------|---------------|
|-----------------9---|-13/14\13-9\7--|
|--12\2--10\2-----9---|--x/-x\-x-x\x--|
|--12\2--10\2-----7---|-11/12\11-7\5--|
|--12\2--10\2---------|---------------|
Don't play the second part the last time, and let the 799 ring into the chorus.
[ Tab from: http://www.guitartabs.cc/tabs/t/tea_party/stargazer_tab.html ]
Chorus 1
|----------------------------------------|
|----------------------------------------|
|-9----11----7---------------------------|
|-9----11----7----7---2/4-2/4-2/7-6-4-2--|
|-7-----9----5----7---2/4-2/4-2/7-6-4-2--|
|-----------------7---2/4-2/4-2/7-6-4-2--|
The part I've labled "Other intro part" is also played here.

Verse 2
|---------------------|---------------|
|---------------------|---------------|
|-----------------9---|-13/14\13-9\7--|
|--12\2--10\2-----9---|--x/-x\-x-x\x--|
|--12\2--10\2-----7---|-11/12\11-7\5--|
|--12\2--10\2---------|---------------|
Don't play the second part the last time, and let the 799 ring into the chorus.

Chorus 2
|----------------------------------------|
|----------------------------------------|
|-9----11----7---------------------------|
|-9----11----7----7---2/4-2/4-2/7-6-4-2--|
|-7-----9----5----7---2/4-2/4-2/7-6-4-2--|
|-----------------7---2/4-2/4-2/7-6-4-2--|
The part I've labled "Other intro part" is also played here.


Bridge
|-----------------------------------|
|-----------------------------------|
|-----------------------------------|
|-2~--4~--0~---7777777777777777~----|
|-2~--4~--0~---7777777777777777~----|
|-2~--4~--0~---7777777777777777~----|

Chorus 3/Outro
|----------------------------------------|
|----------------------------------------|
|-9----11----7---------------------------|
|-9----11----7----7---2/4-2/4-2/7-6-4-2--|
|-7-----9----5----7---2/4-2/4-2/7-6-4-2--|
|-----------------7---2/4-2/4-2/7-6-4-2--|

End on
|------|
|------|
|------|
|--2~--|
|--2~--|
|--2~--|
Comments