Tea Party - Sister Awake Remix Chords & Tabs

 

Sister Awake Remix Chords & Tabs

Tea Party Chords & Tabs

Version: 1 Type: Tab 0 ratings
1 star 2 stars 3 stars 4 stars 5 stars
comments

Sister Awake Remix Tab

   
Sister Awake (Remix) - Tea Party
 
C G C G C D

Intro/Electric Riff 
|----------------|
|----------------|
|---0h3p0--3-\-5-|
|-5--------------|
|-5-0h3p0--3-\-5-|
|-5--------------|

  Bass Line
|-----------------------|
|-----------------------|
|----------------------.|This Keeps on 
|----------------------.|Repeating
|-5--------5-7----------|
|--0-0-0-0-----0-0-0-0--|


This is played on a Mandolin
along with the bass line  
|---------------------------------------------|
|-7-8-7-8-7-8-7-8-\10-8-7-7h8-7-5-4-5-4-5-4-0-|
|---------------------------------------------|
|---------------------------------------------|
|---------------------------------------------|
|---------------------------------------------|

[ Tab from: http://www.guitartabs.cc/tabs/t/tea_party/sister_awake_remix_tab.html ]
This is not exact but gives u an idea
just improvise.
    
 Solo Riff 1
|-12h13p12h13p12--------------------------------|
|----------------12h13p12h13p12-\15-13-12h13p12-|
|-----------------------------------------------|
|-----------------------------------------------|
|-----------------------------------------------|
|-----------------------------------------------|

 Solo Riff 2
|-12h13-\15-12h13-\15-12h13-\15-16-15-13-12-|
|-------------------------------------------|
|-------------------------------------------|
|-------------------------------------------|
|-------------------------------------------|
|-------------------------------------------|

   Bridge
|-----------|
|-----------|
|-----------|Repeat
|-----------|
|-9-7--10-9-|
|-----------|

 
This part is played after the 
bridge it is also the ending riff.

      Outro
|----------------|
|----------------|
|-0h3-\5--0h2-\3-|
|----------------|
|-0h3-\5--0h2-\3-|
|----------------|

Comments