Tea Party - Shadows On The Mountainside Chords & Tabs

 

Shadows On The Mountainside Chords & Tabs

Tea Party Chords & Tabs

Version: 1 Type: Tab 0 ratings
1 star 2 stars 3 stars 4 stars 5 stars
comments

Shadows On The Mountainside Tab

   
Shadows on the Mountainside - Tea Party

-> no picks! play with fingers only!!!
-> listen to the album to get the time/rhythm
-> tuning: drop D low to high >> D A D G B E

There's another guitar playing fill-in's that I didn't tab.
I think its a mandolin or classical guitar.

E |----------------------------------------------
B |----------------------------------------------
G |-------0----------0---------7-9p7-2p0---0-----
D |-----4---4------4-------[12]----------4---4---
A |---0----------0-----[12]--------------------0-
D |-0----------0---------------------------------

E |------------------------------------
B |------------------------------------
G |-------0-------------0----------[5]-
D |-----4-------[12]--------[5][4]-----
A |---0-----[12]---------[5]-----------
D |-0---------------[7]----------------

E |---------0--------------0----
B |-3--------------3------------
G |-----0--------------2-----2-- x4
D |---4-------4------4----------
A |-0--------------0------------
D |-------0--------------0------

E |------------------------------------------------------------
B |-7-------7-----7h8-------8------5-------5----5/7-------7----
G |-----7-----7---------7-----7--------5-----5--------7-----7--
D |---7---------------7--------------5--------------7----------
A |-0-------------0----------------0------------0--------------
D |-------0---------------0--------------0--------------0------

E |---------0---
B |-3-----------
G |-----5-----5- x4
D |---4---------
A |-0-----------
D |-------0-----

E |------------------------------------------------------------
B |-7-------7-----7h8-------8------5-------5----5/7-------7----
G |-----7-----7---------7-----7--------5-----5--------7-----7--
D |---7---------------7--------------5--------------7----------
A |-0-------------0----------------0------------0--------------
D |-------0---------------0--------------0--------------0------

E |---------0---     E |---------0---
B |-3-----------     B |-3-----------
G |-----5-----5- x4  G |-----5-----5- x4
D |---4---------     D |---3---------
A |-0-----------     A |-0-----------
D |-------0-----     D |-------0-----

^^^^^^^^^^^^^^^^^^^^^^^^^^^^^^^^^
        repeat above line x2

E |---------0---
B |-3-----------
G |-----5-----5- x4
D |---4---------  -----------------------------------------------|
A |-0-----------                                                 |
D |-------0-----                                                 |
                                                                 |
E |------------------------------------------------------------  |
B |-7-------7-----7h8-------8------5-------5----5/7-------7---- x2
G |-----7-----7---------7-----7--------5-----5--------7-----7--  |
D |---7---------------7--------------5--------------7----------
A |-0-------------0----------------0------------0--------------
D |-------0---------------0--------------0--------------0------
[ Tab from: http://www.guitartabs.cc/tabs/t/tea_party/shadows_on_the_mountainside_tab.html ]
E |---------0---     E |---------0---
B |-3-----------     B |-3-----------
G |-----5-----5- x4  G |-----5-----5- x4
D |---4---------     D |---3---------
A |-0-----------     A |-0-----------
D |-------0-----     D |-------0-----

^^^^^^^^^^^^^^^^^^^^^^^^^^^^^^^^^
        repeat above line x3

E |---------5---     E |---------0---
B |-0-----------     B |-0-----------
G |-----0-----0- x4  G |-----2-----2- x4
D |---4---------     D |---3---------
A |-5-----------     A |-3-----------
D |-------5-----     D |-------3-----

^^^^^^^^^^^^^^^^^^^^^^^^^^^^^^^^^
        repeat above line x2
.
.
E |---------0---     E |---
B |-8-----------     B |-8-
G |-----0-----0- x3  G |-0-
D |---7---------     D |---
A |-8-----8-----     A |-8-
D |-------------     D |---

E |-------------|-------------|-------------|---------------
B |-1-------1---|-3-------3---|-5-------5---|-5h6-------6---
G |-----2-----2-|-----4-----3-|-----5-----5-|-------7-----7-
D |---2---------|---3---------|---7---------|----7----------
A |-0-----0-----|-0-----0-----|-0-----0-----|-0-------0-----
D |-------------|-------------|-------------|---------------

E |-------------|-------------|-------------|---------0---
B |-5-------5---|-3-------3---|-1-------1---|-0-----------
G |-----5-----5-|-----4-----4-|-----2-----2-|-----1-----1-
D |---7---------|---3---------|---2---------|---2---------
A |-0-----0-----|-0-----0-----|-0-----0-----|-0-----0-----
D |-------------|-------------|-------------|-------------

E |-------------|-------------|-------------|---------------
B |-1-------1---|-3-------3---|-5-------5---|-5h6-------6---
G |-----2-----2-|-----4-----3-|-----5-----5-|-------7-----7-
D |---2---------|---3---------|---7---------|-----7---------
A |-0-----0-----|-0-----0-----|-0-----0-----|-0-------0-----
D |-------------|-------------|-------------|---------------

E |-------------|-------------|-------------|-------------
B |-5-------5---|-3-------3---|-1-------1---|-1-------1h3-
G |-----5-----5-|-----4-----3-|-----2-----2-|-----2-------
D |---7---------|---3---------|---2---------|---2---------
A |-0-----0-----|-0-----0-----|-0-----0-----|-0-----0-----
D |-------------|-------------|-------------|-------------

E |---------0---|---------0---|---------0---|---------0---
B |-0-----------|-0-----------|-0-----------|-0-----------
G |-----1-----1-|-----2-----2-|-----4-----4-|-----7-----7-
D |---2---------|---4---------|---6---------|---9---------
A |-0-----0-----|-0-----0-----|-0-----0-----|-0-----0-----
D |-------------|-------------|-------------|-------------

E |-----------0----
B |-0--------------
G |------10-----10- x4
D |---12-----------
A |-0-------0------
D |----------------

.
.
.
.
E |---------0---     E |-----------0----
B |-0-----------     B |-0--------------
G |-----6-----6- x4  G |------10-----10- x4
D |---7---------     D |---12-----------
A |-0-----0-----     A |-0-------0------
D |-------------     D |----------------

^^^^^^^^^^^^^^^^^^^^^^^^^^^^^^^^^^^^^^^
        repeat above line x4

E |---------0---
B |-0-----------
G |-----6-----6- x8
D |---7---------
A |-0-----0-----
D |-------------

E |---------0---     E |-0-
B |-0-----------     B |-0-
G |-----6-----6- x7  G |-6-
D |---7---------     D |-7-
A |-0-----0-----     A |-0-
D |-------------     D |---



Comments