Tea Party - Release Chords & Tabs

 

Release Chords & Tabs

Tea Party Chords & Tabs

Version: 2 Type: Tab 0 ratings
1 star 2 stars 3 stars 4 stars 5 stars
comments

Release Tab

Release - Tea Party
Tuning - EACEAC

C-0-----0-----0-----0-----0---0---0----0--0---0--|
A-2-----0-----2-----0-----0---0---0----0--0---0--|
E-0-----0-0---0-----0--0--3---1---0----3--1---0--|
C-0-----0-----0-----0-----0---0---0----0--0---0--|
A-2-----0-----2-----0-----0---0---0----0--0---0--|
E-0-----0-----0-----0-----3---1---0----3--1---0--|


C-0-----0---------0-----0--------------0---0---0----0--0-----0--|
A-2-----0---------2-----0--------------0---0---0----0--0-----0--|
E-0-----0---0-----0-----0----0---------3---1---0----3--1-----0--|
C-0-----0---------0-----0--------------0---0---0----0--0-----0--|
A-2-----0---------2-----0--------------0---0---0----0--0-----0--|
E-0-----0---------0-----0--------------3---1---0----3--1-----0--|


C-0-----0---------0-----0--------------0---0---0----0--0-----0--|
A-2-----0---------2-----0--------------0---0---0----0--0-----0--|
E-0-----0---0-----0-----0----0---------3---1---0----3--1-----0--|
C-0-----0---------0-----0--------------0---0---0----0--0-----0--|
A-2-----0---------2-----0--------------0---0---0----0--0-----0--|
E-0-----0---------0-----0--------------3---1---0----3--1-----0--|

[ Tab from: http://www.guitartabs.cc/tabs/t/tea_party/release_tab_ver_2.html ]
C-0-----0---------0-----0--------------0---0---0----0--0-----0--|
A-2-----0---------2-----0--------------0---0---0----0--0-----0--|
E-0-----0---0-----0-----0----0---------3---1---0----3--1-----0--|
C-0-----0---------0-----0--------------0---0---0----0--0-----0--|
A-2-----0---------2-----0--------------0---0---0----0--0-----0--|
E-0-----0---------0-----0--------------3---1---0----3--1-----0--|

C-0-----0---------0-----0--------------0---0---0----0--0-----0--|
A-2-----0---------2-----0--------------0---0---0----0--0-----0--|
E-0-----0---0-----0-----0----0---------3---1---0----3--1-----0--|
C-0-----0---------0-----0--------------0---0---0----0--0-----0--|
A-2-----0---------2-----0--------------0---0---0----0--0-----0--|
E-0-----0---------0-----0--------------3---1---0----3--1-----0--|

C-----------------------------------------|
A-----------------------------------------|
E-----------------------------------------|
C-----------------------------------------|
A-0-----/5---0----/7-8-7----5-------------|
E-----------------------------------------|


C------------------------------------------|
A-0--/7---5---3--5---10^12--10-------------|
E------------------------------------------|
C------------------------------------------|
A------------------------------------------|
E------------------------------------------|


C------------------------------------------|
A---10^12-10--7/5---0--5/7--0--3/5------3--|
E------------------------------------------|
C------------------------------------------|
A------------------------------------------|
E------------------------------------------|
Comments