Tea Party - Paint It Black Chords & Tabs

 

Paint It Black Chords & Tabs

Tea Party Chords & Tabs

Version: 1 Type: Tab 0 ratings
1 star 2 stars 3 stars 4 stars 5 stars
comments

Paint It Black Tab

   
'Paint It Black'
Originally by the Rolling Stones
Performed by the Tea Party
Tabbed by AL Dickson.

Intro
  let ring..................
e--5----------------------------------------------------
B--5----------------------------------------------------
G--5----------------------------------------------------
D--7----------------------------------------------------
A--7----------------------------------------------------
E--5----------------------------------------------------

Verse is mostly Drums and Bass, but the chords 
are just Em and Am.
[ Tab from: http://www.guitartabs.cc/tabs/t/tea_party/paint_it_black_tab.html ]
e-------------------------------------------------------
B-------------------------------------------------------
G-------------------------------------------------------
D-----7--9--10/12-10-9--7--6--6--7--9--7-6--6-6-6-6-----
A--0--0--0--0--0--0--0--0--7--7--7--7--7-7--7-7-7-7-----
E--------------------------0--0--0--0--0-0--0-0-0-0-----

Let Chords Ring
  A    G     C    D     Em
e-------------------------------------------------------
B-------------------------------------------------------
G------------5----7-----4-----14-b-12-b-13*-------------
D-7----5-----5----7-----2-------------------------------
A-7----5-----3----5-----2-------------------------------
E-5----3-----3----5-----0-------------------------------

*To do this, bend the 12th up to the 14th then hit the
note and release it to the normal position, then gradually bend
a half-step to the 13th or Ab.

any questions or comments to owl77@hotmail.com
Comments