Tea Party - Midsummer Day Chords & Tabs

 

Midsummer Day Chords & Tabs

Tea Party Chords & Tabs

Version: 2 Type: Tab 0 ratings
1 star 2 stars 3 stars 4 stars 5 stars
comments

Midsummer Day Tab

Midsummer Day: Written by The Tea Party, 
Album: Slpendor Solis/The Tea Party. 
Tabbed and submitted to 'http://www.ultimate-guitar.com' by Blake Eveleigh.

NOTE: If you are playing this song off The Tea Party's first album, called 'The Tea Party',
then the whole song is played on a 12-string acoustic. 
If you are playing this song off Splendor Solis, the first verse
is a 6-string acoustic playing close to the bridge, and a 12-string for the rest...                      
                              
This tab is written in open C tuning... 
C G C G C D, cause it's way easier on your guitar... especially if u have a 12-string.

(Intro)
C|-------------------------------------------------------------------------|
G|---------------0----0----------------0----0------------------------------|
C|-------------0----0----------------0----0-----------------3-----0--------|
G|-----------4----2----------------5----4-----------------0-----0----------|
C|------------------------------------------------------3-----2------------|
D|--4--2--0--------------4--2--0--------------4--2--0---------------4--2--0|

C|----------------------|
G|--2-4-5-4--0----------|
C|--0-0-0-0--0----------| 
G|--2-4-5-4--0----------|
C|--0-0-0-0--0----------|
D|----------------------|

C|-------------------------------------------------------------------------|
G|---------------0----0----------------0----0------------------------------|
C|-------------0----0----------------0----0-----------------3-----0--------|
G|-----------4----2----------------5----4-----------------0-----0----------|
C|------------------------------------------------------3-----2------------|
D|--4--2--0--------------4--2--0--------------4--2--0---------------4--2--0|

C|----------------------|
G|--2-4-5-4--0----------|
C|--0-0-0-0--0----------| 
G|--2-4-5-4--0----------|
C|--0-0-0-0--0----------|
D|--------------4--2--0-|
............................................................................
C|-------------------------------------------------------------------------|
G|--------------------------------------------------------------2-4-5-4--0-|
C|-----3----0--------------3----0---------------3----0----------0-0-0-0--0-|
G|---0----0--------------0----0---------------0----0------------2-4-5-4--0-|
C|-3----2--------------3----2---------------3----2--------------0-0-0-0--0-|
D|-----------4--2--0--------------4--2--0--------------4--2--0-------------|

C|----------|        
G|----------|
C|----------|
G|----------|
C|----------|
D|--4--2--0-|

C|-------------------------------------------------------------------------|
G|--------------------------------------------------------------2-4-5-4--0-|
C|-----3----0--------------3----0---------------3----0----------0-0-0-0--0-|
G|---0----0--------------0----0---------------0----0------------2-4-5-4--0-|
C|-3----2--------------3----2---------------3----2--------------0-0-0-0--0-|
D|-----------4--2--0--------------4--2--0--------------4--2--0-------------|

(Verse)
C|-------------------------------------------------------------------------|
G|---------------0----0----------------0----0------------------------------|
C|-------------0----0----------------0----0-----------------3-----0--------|
G|-----------4----2----------------5----4-----------------0-----0----------|
C|------------------------------------------------------3-----2------------|
D|--4--2--0--------------4--2--0--------------4--2--0---------------4--2--0|

C|----------------------|
G|--2-4-5-4--0----------|
C|--0-0-0-0--0----------| 
G|--2-4-5-4--0----------|
C|--0-0-0-0--0----------|
D|----------------------|

C|-------------------------------------------------------------------------|
G|---------------0----0----------------0----0------------------------------|
C|-------------0----0----------------0----0-----------------3-----0--------|
G|-----------4----2----------------5----4-----------------0-----0----------|
C|------------------------------------------------------3-----2------------|
D|--4--2--0--------------4--2--0--------------4--2--0---------------4--2--0|

C|----------------------|
G|--2-4-5-4--0----------|
C|--0-0-0-0--0----------| 
G|--2-4-5-4--0----------|
C|--0-0-0-0--0----------|
D|--------------4--2--0-|
............................................................................
C|-------------------------------------------------------------------------|
G|--------------------------------------------------------------2-4-5-4--0-|
C|-----3----0--------------3----0---------------3----0----------0-0-0-0--0-|
G|---0----0--------------0----0---------------0----0------------2-4-5-4--0-|
C|-3----2--------------3----2---------------3----2--------------0-0-0-0--0-|
D|-----------4--2--0--------------4--2--0--------------4--2--0-------------|

C|----------|        
G|----------|
C|----------|
G|----------|
C|----------|
D|--4--2--0-|

C|-------------------------------------------------------------------------|
G|--------------------------------------------------------------2-4-5-4--0-|
C|-----3----0--------------3----0---------------3----0----------0-0-0-0--0-|
G|---0----0--------------0----0---------------0----0------------2-4-5-4--0-|
C|-3----2--------------3----2---------------3----2--------------0-0-0-0--0-|
D|-----------4--2--0--------------4--2--0--------------4--2--0-------------|

............................................................................
C|---0-0-0-0--0--0--0--0--0--0--0--0--0--0--0--0--0--0--0-0-0-0------------|
G|---7-7-9-9-12-12-11-11-14-14-12-12-17-17-16-14-14-12-12-9-9-7------------|
C|---0-0-0-0--0--0--0--0--0--0--0--0--0--0--0--0--0--0--0-0-0-0------------|
G|---7-7-9-9-12-12-11-11-14-14-12-12-17-17-16-14-14-12-12-9-9-7------------|
C|-------------------------------------------------------------------------|
D|-------------------------------------------------------------------------|
............................................................................

(Verse 2) 
C|-------------------------------------------------------------------------|
G|---------------0----0----------------0----0------------------------------|
C|-------------0----0----------------0----0-----------------3-----0--------|
G|-----------4----2----------------5----4-----------------0-----0----------|
C|------------------------------------------------------3-----2------------|
D|--4--2--0--------------4--2--0--------------4--2--0---------------4--2--0|

C|----------------------|
G|--2-4-5-4--0----------|
C|--0-0-0-0--0----------| 
G|--2-4-5-4--0----------|
C|--0-0-0-0--0----------|
D|----------------------|

C|-------------------------------------------------------------------------|
G|---------------0----0----------------0----0------------------------------|
C|-------------0----0----------------0----0-----------------3-----0--------|
G|-----------4----2----------------5----4-----------------0-----0----------|
C|------------------------------------------------------3-----2------------|
D|--4--2--0--------------4--2--0--------------4--2--0---------------4--2--0|
[ Tab from: http://www.guitartabs.cc/tabs/t/tea_party/midsummer_day_tab_ver_2.html ]
C|----------------------|
G|--2-4-5-4--0----------|
C|--0-0-0-0--0----------| 
G|--2-4-5-4--0----------|
C|--0-0-0-0--0----------|
D|--------------4--2--0-|
............................................................................
C|-------------------------------------------------------------------------|
G|--------------------------------------------------------------2-4-5-4--0-|
C|-----3----0--------------3----0---------------3----0----------0-0-0-0--0-|
G|---0----0--------------0----0---------------0----0------------2-4-5-4--0-|
C|-3----2--------------3----2---------------3----2--------------0-0-0-0--0-|
D|-----------4--2--0--------------4--2--0--------------4--2--0-------------|

C|----------|        
G|----------|
C|----------|
G|----------|
C|----------|
D|--4--2--0-|

C|-------------------------------------------------------------------------|
G|--------------------------------------------------------------2-4-5-4--0-|
C|-----3----0--------------3----0---------------3----0----------0-0-0-0--0-|
G|---0----0--------------0----0---------------0----0------------2-4-5-4--0-|
C-3----2--------------3----2---------------3----2--------------0-0-0-0--0--|
D-----------4--2--0--------------4--2--0--------------4--2--0--------------|
____________________________________________________________________________

C|--------------------------------|--------------------------|
G|--6-7-7-6-7---6-7-9-10-9-10-9-7-|--6-7-7-6-7--1-0-0-1-0-0--|
C|--0-0-0-0-0---0-0-0-0--0-0--0-0-|--0-0-0-0-0--0-0-0-0-0-0--|
G|--6-7-7-6-7---6-7-9-10-9-10-9-7-|--6-7-7-6-7--1-0-0-1-0-0--|
C|--0-0-0-0-0---0-0-0-0--0-0--0-0-|--0-0-0-0-0--0-0-0-0-0-0--|
D|--------------------------------|--------------------------|

C|--------------------------------|--------------------------|
G|--6-7-7-6-7---6-7-9-10-9-10-9-7-|--6-7-7-6-7--1-1-0-0------|
C|--0-0-0-0-0---0-0-0-0--0-0--0-0-|--0-0-0-0-0--0-0-0-0------|
G|--6-7-7-6-7---6-7-9-10-9-10-9-7-|--6-7-7-6-7--1-1-0-0------|
C|--0-0-0-0-0---0-0-0-0--0-0--0-0-|--0-0-0-0-0--0-0-0-0------|
D|--------------------------------|--------------------------|
                               -Play *6* Times-
____________________________________________________________________________


C|----------------------------------------------|
G|--1-0--5-4--7-8--13-12----1-0--5-4--7-8--5-4--|
C|--0-0--0-0--0-0--0--0-----0-0--0-0--0-0--0-0--|
G|--1-0--5-4--7-8--13-12----1-0--5-4--7-8--5-4--|
C|--0-0--0-0--0-0--0--0-----0-0--0-0--0-0--0-0--|
D|----------------------------------------------|

C|---------------------------------------------------|
G|--1-0--5-4--7-8--13-12----1-0--5-4--7-8--1-1--0-0--|
C|--0-0--0-0--0-0--0--0-----0-0--0-0--0-0--0-0--0-0--|
G|--1-0--5-4--7-8--13-12----1-0--5-4--7-8--1-1--0-0--|
C|--0-0--0-0--0-0--0--0-----0-0--0-0--0-0--0-0--0-0--|
D|---------------------------------------------------|
____________________________________________________________________________

Now just repeat the verse as many times as needed... then...

C|---------0--x------------0-----------------------5p2---------------------|
G|-------0----0----------0-----------------------0-----0-------------------|
C|-----0------0--------0-----------0h2p0---0---0---------0-----------------|
G|---3--------5------3-----------0-------0---5-------------5---------------|
C|-----------------------------0-------------------------------------------|
D|---------------------------5-------------------------------5-------------|

C|-------------------------------------------------------------------------|
G|----------4-------5-------7-------0-------2-------5-------4------4-------|
C|--------0-------0-------0-------0-------0-------0-------0------0---------|
G|------0-------0-------0-------0-------0-------0-------0------0-----------|
C|----5-------7-------9-------9-------4-------7-------5------5-------------|
D|-0-----------------------------------------------------------------------|
Repeat this as many times as necessary... If you have a half decent brain pan, 
i'm sure you can figure it out:Simply count. 1...2...3...4...etc.
But then it gies like...
C|-------------------------------------------------------------------------|
G|---------9-------7-------5-------5-------2------5-------4-------4--------|
C|-------0-------0-------0-------0-------0------0-------0-------0----------|
G|-----0-------0-------0-------0-------0------0-------0-------0------------|
C|--10-------9-------7-------7-------4------7-------5-------5--------------|
D|-------------------------------------------------------------------------|
Same catch on this 1... I am gonna make you use a whole 10 brain cells to figure 
this 1 else... I have a headache now, from all the numbers...
Then it finishes off with a...

                            Harm.                          Harm.
C|--------------------------x12----------------------------x12-------------|
G|--------0------0-----------------------0-------0-------------------------|
C|------4------0---------0-------------4-------0---------0-----------------|
G|----4------2---------0-------------4-------2---------0-------------------|
C|--2------0---------0-------------2-------0---------0---------------------|
D|-----------------5-------------------------------5-----------------------|

                            Harm.                          Harm.
C|--------------------------x12----------------------------x12-------------|
G|--------0------0-----------------------0-------0---------------------0---|
C|------4------0---------0-------------4-------0---------0h2p0---0---0-----|
G|----4------2---------0-------------4-------2---------0-------0---5-------|
C|--2------0---------0-------------2-------0---------0---------------------|
D|-----------------5-------------------------------5-----------------------|
                              |Slow this bit down a tad...................

C|-5p2-----------|
G|-----0---------|
C|-------0-------|
G|---------------|
C|---------------|
D|----------4/5-5|

Then finish the song with...
C|-------------------------------------------------------------------------|
G|---------------0----0----------------0----0------------------------------|
C|-------------0----0----------------0----0-----------------3-----0--------|
G|-----------4----2----------------5----4-----------------0-----0----------|
C|------------------------------------------------------3-----2------------|
D|--4--2--0--------------4--2--0--------------4--2--0---------------4--2--0|


C|----------------000------------------------------------------------------|
G|----2-4-5-7-----000------------------------------------------------------|
C|----0-0-0-0-----000------------------------------------------------------|
G|----2-4-5-7-----000------------------------------------------------------|
C|----0-0-0-0-----000------------------------------------------------------|
D|----------------000------------------------------------------------------|
And there we go now... hope you enjoy it more than I enjoyed tabbing it... lol just kidding.
    And questions or suggestions: e-mail nimhex12@hotmail.com
Comments