Tea Party - Lullaby Chords & Tabs

 

Lullaby Chords & Tabs

Tea Party Chords & Tabs

Version: 1 Type: Tab 1 rating
1 star 2 stars 3 stars 4 stars 5 stars
comments

Lullaby Tab

   
Lullaby
By The Tea Party
From the Introzone Mantras album
Transcribed by Michael Rogovik   30/09/01

Tuning : E A D G B E

Main Riff
E|----0-0-0-0-0-0-0-0-0-0-0-0-0-0-0-0----|
B|----5-5-6-5-5-6-5-5-6-5-5-6/7-7-6-6----|
G|---------------------------------------|
D|---------------------------------------|
A|---------------------------------------|
E|---------------------------------------|

Intro Main Riff x4

Main Riff
You've been looking for god

Main Riff
You've been down on your knees

Main Riff
Will the angels believe you now?

Main Riff
Wanting more than the bliss

Main Riff
Of a beautiful kiss

Main Riff
From the lips of the one

Main Riff 2 But.....
E|----0-0-0-0-0-0-0-0-0-0-0-0-0-0-0-----|
B|----5-5-6-5-5-6-5-5-6-5-5-6-5-5-6-----|
G|--------------------------------------|
D|--------------------------------------|
A|--------------------------------------|
E|--------------------------------------|
Who felt?Its hard to tell
  
  Riff 3
E|--------------------|
B|--------------------|
G|--------------------|
D|--7--7--7-7---------|x8 let ring at the last one
A|--7--7--7-7---------|
E|--5--5--5-5---------|
So come on!

Main Riff
It's like an opiate dream 

Main Riff
through your psyche extremes

Main Riff
It relieves ands bleeds 

Main Riff 2
the pain, that you thought remained

  Riff3
So oh no, please don't, wave goodbye

  Fill1
E|------------------------------------------------------------------|
B|------------------------------------------------------------------|
G|--14--14--14--14--16--16--16--16--17--17--17--17--19--19--19--19--|
D|------------------------------------------------------------------|
A|------------------------------------------------------------------|
E|------------------------------------------------------------------|

Wave goodbye

(this part Jeff doesn't play anything while drums and bass play) 
Cause your sleeping 
  
E|--x---|   E|--x---|
B|--x---|   B|--x---|
G|--10--|   G|--9---|
D|--x---|x9 D|--x---|x9
A|--8---|   A|--7---|
E|--x---|   E|--x---|
tonight

  Riff 4
E|--x---x---x--|--x---|   E|--x--|
B|--x---x---x--|--x---|   B|--x--|
G|--12--10--7--|--10--|   G|--9--|
D|--x---x---x--|--x---|x9 D|--x--|x9
A|--10--8---9--|--8---|   A|--7--|
E|--x---x---x--|--x---|   E|--x--|
Sleeping tonight
[ Tab from: http://www.guitartabs.cc/tabs/t/tea_party/lullaby_tab.html ]
E|--x---x---x--|--x---|   E|--x--|   E|--x--|  |-----|
B|--x---x---x--|--x---|   B|--x--|   B|--x--|  |-----|
G|--12--10--7--|--10--|   G|--9--|   G|--7--|  |-----|
D|--x---x---x--|--x---|x9 D|--x--|x9 D|--x--|x4|--7--|
A|--10--8---9--|--8---|   A|--7--|   A|--5--|  |--7--|
E|--x---x---x--|--x---|   E|--x--|   E|--x--|  |--5--|
Safe in the arms of Morpheus

Main Riff
You've escaped through this means

Main Riff
These delirous dreams

Main Riff
Helped to shelter and sooth 

Main Riff
your soul

Main Riff
The regretable roles

Main Riff
The salvation you sold

Main Riff
Satisfies your desire to burn

Riff 2
And now you've earned So come on! 

Riff 3
Oh no, please don't, wave goodbye

Fill 1
Wave goodbye

(this part Jeff doesn't play anything while drums and bass play)
Cause your sleeping 

E|--x---|   E|--x---|
B|--x---|   B|--x---|
G|--10--|   G|--9---|
D|--x---|x9 D|--x---|x9
A|--8---|   A|--7---|
E|--x---|   E|--x---|
tonight

Riff 4
Sleeping tonight

E|--x---x---x--|--x---|   E|--x--|   E|--x--|  |-----|
B|--x---x---x--|--x---|   B|--x--|   B|--x--|  |-----|
G|--12--10--7--|--10--|   G|--9--|   G|--7--|  |-----|
D|--x---x---x--|--x---|x9 D|--x--|x9 D|--x--|x4|--7--|
A|--10--8---9--|--8---|   A|--7--|   A|--5--|  |--7--|
E|--x---x---x--|--x---|   E|--x--|   E|--x--|  |--5--|
Safe in the arms of Morpheus

Solo
(this part you got to pick really fast, so listen to the song. 
this is the notes of the solo not the picking)
E|-------------------------------------------------------|   
B|-------------------------------------------------------| 
G|--14--17-15--9--12/10--12--17--14--17--15--9-----------|   
D|-------------------------------------------------------|
A|-------------------------------------------------------|   
E|-------------------------------------------------------|   

And we're waving
 
E|--x---|   E|--x---|
B|--x---|   B|--x---|
G|--10--|   G|--9---|
D|--x---|x9 D|--x---|x9
A|--8---|   A|--7---|
E|--x---|   E|--x---|
goodbye


Riff 4
Your sleeping tonight

E|--x---x---x--|--x---|   E|--x--|   E|--x--|  |-----|
B|--x---x---x--|--x---|   B|--x--|   B|--x--|  |-----|
G|--12--10--7--|--10--|   G|--9--|   G|--7--|  |-----|
D|--x---x---x--|--x---|x9 D|--x--|x9 D|--x--|x4|--7--|
A|--10--8---9--|--8---|   A|--7--|   A|--5--|  |--7--|
E|--x---x---x--|--x---|   E|--x--|   E|--x--|  |--5--|
Safe in the arms of Morpheus

Thats it have fun with it
Comments