Tea Party - Lifeline Chords & Tabs

 

Lifeline Chords & Tabs

Tea Party Chords & Tabs

Version: 1 Type: Tab 0 ratings
1 star 2 stars 3 stars 4 stars 5 stars
comments

Lifeline Tab

Lifeline - Tea Party
Tabbed by: Bob Wildauer

This is my first tab, hope you enjoy it.  The tuning I used was open C:
(Low to High) C,G,C,G,C,E.  I'm sure you can do it in another tuning, but
quite a few Tea Party songs use this tuning.  Anyway, this tab is hardly 
exact, I have a bad ear for figuring things out.  But it should at least
give you a general idea as to how this song goes. For the chorus, just play
the first lead part to start it, second lead part 4 times (I think) during, 
and close with the third part.  I also wrote song structure/tried to figure
out lyrics at the bottom of the tab.

Intro:
E-----------------------------0h1p0--------------------------|
C----------------------------------0-------------------------|
G----------------0-----5^-\3-----------------0-------3^\5----|
C-----------4--5---4-5-------------------4--5---4--5---------|
G------------------------------------------------------------|
C-0-4h5p4p0--------------------------------------------------|

*Note:  Where I have the C (on G) bent and then slid to A#, he 
actually tunes the note on the C string down to A#, then back up later
in the riff.  I just find sliding/bending a lot easier on the strings.

Verse:
E-------------------------------------------------------
C-------------------------------------------------------
G-------------------------------------------------------
C-------------------4h5p4----------------------4h5p4----
G-3-5--3-5--3-5--3-5------5--2-3--2-3--2-3--2-3-----5---
C-------------------------------------------------------

E-------------------------------------------------------
C-------------------------------------------------------
G-------------------------------------------------------
C-------------------4h5p4-------------------------------
G-3-5--3-5--3-5--3-5------5--3-5--3-5--3-5--3-5---------
C-----------------------------------------------4h5p4-0-



Prechorus: (Not Exact)
E--------------------------------------
C--------------------------------------
G-0-------------0----0-----------------
C---4-5-0---5-4---4----4-5-0---5-4-0---
G-----------------------------3--------
C--------------------------------------

Chorus:
Lead Parts:
[ Tab from: http://www.guitartabs.cc/tabs/t/tea_party/lifeline_tab.html ]
E-------------|---------|--------------
C--4h5p4------|--12^\7--|---4h5--4~\---
G--------5~~--|---------|--------------
C-------------|---------|--------------
G-------------|---------|--------------
C-------------|---------|--------------

Rhythm: (Strum each chord for a measure,
end the 4th time letting the C ring.)
E---0-----0----------------------------
C---0-----0----------------------------
G---0-----0----------------------------
C---0-----0----------------------------
G---3-----5----------------------------
C--------------------------------------

Bridge:
E-16-13-16-14~--14-13-14-19^-21--------
C--------------------------------------
G--------------------------------------
C--------------------------------------
G--------------------------------------
C--------------------------------------

Outro:
E----------------------------------------|
C----------------------------------------|
G---------0-----5^-\3--------------------|
C----4--5---4-5--------------------------|
G----------------------------------------|
C-0--------------------------------------|

Structure:
Intro x2
Verse x2
Prechorus
Verse x2
Prechorus
Chorus x4
Verse x2
Prechorus
Chorus x4
Bridge x4
Chorus x4
Outro

Lyrics:
See this Lifeline in chains
Seek resistance mistrained (?)
Listless lover of stars
Makes me wonder how far you've come

All you've learned, you've forgotten
You desperate soul, you're lost again.

Can't help feeling betrayed
Nothing's come from the grave
Helpless angel of fate
How much longer to wait.

All you've learned, you've forgotten
You desperate soul, you're lost again.

Don't you see all this time.
Takes away, takes the place of up above
Can't you see life's here and it's shining.
Look around. I've been waiting, love.

Crushed by lies in the dark
Help them tear you apart
listless lover of stars
Makes me wonder how far you've come

All you've learned, you've forgotten
You desperate soul, you're lost again.

Don't you see all this time.
Takes away, takes the place of up above
Can't you see life's here and it's shining.
Look around. I've been waiting, love.


Any questions, suggestion, etc.  Email me at and115@hotmail.com
Copyright 2004, Bob-0 Industries: a Eurobox Subsidiary
Comments