Tea Party - Life Line Chords & Tabs

 

Life Line Chords & Tabs

Tea Party Chords & Tabs

Version: 2 Type: Tab

Life Line Tab

Date: Dec/18/05
MrDeetag
The Tea Party - Life Line
 
[ Tab from: http://www.guitartabs.cc/tabs/t/tea_party/life_line_tab_ver_2.html ]
Intro
 
E-|----------------------------0h1p0-----------------|
B-|----------------------------------1---------------|
G-|----------------------5/3-------------------------|
D-|-----------2-3-5-2-3------------------------------|
A-|--------------------------------------------------|
C-|-0-3b3b-0-----------------------------------------|
 
E-|--------------------------------------------------|
B-|--------------------------------------------------|
G-|-----------3\5------------------------------------|
D-|-2-3-5-2-3----------------------------------------|
A-|--------------------------------------------------|
C-|----------------0-3b3b-0--------------------------|
 
Verses
 
E----------------------------------------------------|
B----------------------------------------------------|
G----------------------------------------------------|
D----5----3----0-------------------------------------|
A----3----1----2-------------------------------------|
C----0----0----0-------------------------------------|
 
Chorus
 
E----------------------------------------------------|
B----------------------------------------------------|
G----------------------------------------------------|
D-5-2-3----------3-2-5-------------------------------|
A--------3/1------------1/3--------------------------|
C----------------------------------------------------|