Tea Party - Innanna Chords & Tabs

 

Innanna Chords & Tabs

Tea Party Chords & Tabs

Version: 2 Type: Tab 0 ratings
1 star 2 stars 3 stars 4 stars 5 stars
comments

Innanna Tab

Innana - Tea Party

tuning is confusing.  It's actually open C:
e stays the same
B up to C (one fret)
G stays the same
D down to C (two frets)
A down to G (two frets)
E down to C (four frets)

   Verses

-0--0--0---0---0---0----0---0---|
-0--2--4---6---7---9----7---7---|
-0--0--0---0---0---0----0---0---|
-0--2--4---6---7---9----7---7---|
-0--0--0---0---0---0----0---0---|
--------------------------------|
 Ov-er the sky and sea, my love

-0--0--0---0---0---0---|
-4--5--4---2---4---0---|
-0--0--0---0---0---0---|
-4--5--4---2---4---0---|
-0--0--0---0---0---0---|
-----------------------|
 Ov-er the sky and sea

   Chorus
[ Tab from: http://www.guitartabs.cc/tabs/t/tea_party/innanna_tab_ver_2.html ]
--0----0---0----0---0-----0--0--0--0--0--0--0--|
--7----9---10---9---7-----5--7--9--10-9--7--7--|
--0----0---0----0---0-----0--0--0--0--0--0--0--|
--7----9---10---9---7-----5--7--9--10-9--7--7--|
--0----0---0----0---0-----0--0--0--0--0--0--0--|
-----------------------------------------------|
 Would you walk ten miles wi-th me-e-ee  my love?

--0----0---0----0---0---0----0------|
--7----9---10---9---9---7----7\5----|
--0----0---0----0---0---0----0------|
--7----9---10---9---9---7----7\5----|
--0----0---0----0---0---0----0------|
------------------------------------|
 Would you walk the sky with me-e?

--0----0---0----0---0---0----0--0--0--0--0--|
--7----9---10---9---7---5----4--5--4--2--0--|
--0----0---0----0---0---0----0--0--0--0--0--|
--7----9---10---9---7---5----4--5--4--2--0--|
--0----0---0----0---0---0----0--0--0--0--0--|
--------------------------------------------|
 Would you walk the sky with me-e-ee  my love?

-0-0---0-|
-0-0---0-|
-5-6---5-|
-0-0---0-|
-5-6---5-|
---------|
 I-nna-na
Comments