Taylor Swift - Take A Bow Chords & Tabs

 

Taylor Swift Chords & Tabs

Version: 1 Type: Tab 0 ratings
1 star 2 stars 3 stars 4 stars 5 stars
comments

Take A Bow Tab

   
Hi. This is Taylor Swifts cover tab to Take A Bow
If you wanna hear how she plays it you can visit....
http://www.youtube.com/watch?v=CC-vENKF0hg&feature=related.....
and it will help with timing a stumming patterns
I did this by ear and im hoping its close enough
Enjoy!


intro:
G........              D/F#........          Em7.........     Cadd9
------3------ --3------- ---3----------3---|
---------3--------3-----------3------3-----|
----0---------0----------0----------0------|
-------------------------------------------|
---------------------------------3---------|
-3---------2----------0--------------------|


Verse one
------3------ --3------- ---3----------3---|
---------3--------3-----------3------3-----|
----0---------0----------0----------0------|
-------------------------------------------|
---------------------------------3---------|
-3---------2----------0--------------------|
 You look so dumb right now

------3------ --3------- ---3----------3---|
---------3--------3-----------3------3-----|
----0---------0----------0----------0------|
-------------------------------------------|
---------------------------------3---------|
-3---------2----------0--------------------|
 Standing outside my house

------3------ --3------- ---3----------3---|
---------3--------3-----------3------3-----|
----0---------0----------0----------0------|
-------------------------------------------|
---------------------------------3---------|
-3---------2----------0--------------------|
Trying to apologise you your so ugly when you cry

------3------ --3------- ---3----------3---|
---------3--------3-----------3------3-----|
----0---------0----------0----------0------|
-------------------------------------------|
---------------------------------3---------|
-3---------2----------0--------------------|
Please just cut it out

------3------ --3------- ---3----------3---|
---------3--------3-----------3------3-----|
----0---------0----------0----------0------|
-------------------------------------------|
---------------------------------3---------|
-3---------2----------0--------------------|
And dont tell me your sorry cause you not
[ Tab from: http://www.guitartabs.cc/tabs/t/taylor_swift/take_a_bow_tab.html ]
------3------ --3------- ---3----------3---|
---------3--------3-----------3------3-----|
----0---------0----------0----------0------|
----------------------------------3--------|
-------------------------------------------|
-3---------2----------0--------------------|
I know your only sorry you got caught

Chorus(strum from here on)

G                                 D/F#
But you put on quite a show
Em7                    Cadd9
Very enternianing
G                      D/F#
Now its time to go
Em7                   Cadd9
curtians finally closing
G                         D/F#
That was quite a show
Em7                   Cadd9
Really had me going
Am     G/B    C
But its over now
Am      G/B             F
So go on and take a bow

Verse two

G                 D/F#       Em7        Cadd9
Grab your clothes and get gone
G                D/F#             Em7                        Cadd9
You better hurry up before the sprinklers come on
G                                                        D/F#
Talkin' about, girl, I love you, you're the one
Em7                           Cadd9
This just looks like a re-run
G           D/F#          Em7    Cadd9
Please, what else is on (oh)

G                D/F#           Em7                   Cadd9
And don't tell me you're sorry 'cause you're not
G          D/F#               Em7                           F
Baby when I know you're only sorry you got caught


Chorus


G                                 D/F#
But you put on quite a show
Em7                    Cadd9
Very enternianing
G                      D/F#
Now its time to go
Em7                   Cadd9
curtians finally closing
G                         D/F#
That was quite a show
Em7                   Cadd9
Really had me going
Am     G/B    C
But its over now
Am      G/B             F
So go on and take a bow
Comments