Taylor Swift - Speak Now Chords & Tabs

 

Taylor Swift Chords & Tabs

Version: 1 Type: Tab 0 ratings
1 star 2 stars 3 stars 4 stars 5 stars
comments

Speak Now Tab

   
Speak Now by Taylor Swift

Tuning: STANDARD
No capo

Okay here it goes...

INTRO:
e
B
G
D
A
e

   G              G

e|--3-----3--------3-----3--------|
B|--3--T--3--T-----3--T--3--T-----|
G|-----A-----A--------A-----A-----|
D|-----P-----P--------P-----P-----|
A|--------------------------------|
E|--3-----3--------3-----3--------|

Verse 1:

   G               D              Am               C

e|--3-------3-------2-------2-------0-------0-------0-------0-----|
B|--3---T---3---T---3---T---3---T---1---T---1---T---1---T---1--T--|
G|------A-------A-------A-------A-------A-------A-------A------A--|
D|------P-------P-------P-------P-------P-------P-------P------P--|
A|------------------0-------0-------0-------0-------3-------3-----|
E|--3-------3-----------------------------------------------------|

   G               D              Am               C (let ring)

 --3-------3-------2-------2-------0-------0-------0----|
 --3---T---3---T---3---T---3---T---1---T---1---T---1----|
 ------A-------A-------A-------A-------A-------A--------|
 ------P-------P-------P-------P-------P-------P--------|
 ------------------0-------0-------0-------0-------3----|
 --3-------3--------------------------------------------|


   G               D              Am               C

e|--3-------3-------2-------2-------0-------0-------0-------0------|
B|--3---T---3---T---3---T---3---T---1---T---1---T---1---T---1---T--|
G|------A-------A-------A-------A-------A-------A-------A-------A--|
D|------P-------P-------P-------P-------P-------P-------P-------P--|
A|------------------0-------0-------0-------0-------3-------3------|
E|--3-------3------------------------------------------------------|

   G               D              Am               C

 --3-------3-------2-------2-------0-------0-------0-------0------|
 --3---T---3---T---3---T---3---T---1---T---1---T---1---T---1---T--|
 ------A-------A-------A-------A-------A-------A-------A-------A--|
 ------P-------P-------P-------P-------P-------P-------P-------P--|
 ------------------0-------0-------0-------0-------3-------3------|
 --3-------3------------------------------------------------------|


Pre chorus:

   Am              C               G               D

e|--0-------0-------0-------0-------3-------3-------2---2-3-2-0----|
B|--1---T---1---T---1---T---1---T---3---T---3---T---3-----------3--|
G|------A-------A-------A-------A-------A-------A------------------|
D|------P-------P-------P-------P-------P-------P------------------|
A|--0-------0-------3-------3-----------------------0--------------|
E|----------------------------------3-------3----------------------|

   Am              C               D               D(strum)
[ Tab from: http://www.guitartabs.cc/tabs/t/taylor_swift/speak_now_tab.html ]
e|--0-------0-------0-------0-------2-------2-------2--|
B|--1---T---1---T---1---T---1---T---3---T---3---T---3--|
G|------A-------A-------A-------A-------A-------A---2--|
D|------P-------P-------P-------P-------P-------P---0--|
A|--0-------0-------3-------3-------0-------0-------0--|
E|--------------------------------------------------0--|


Chorus:(You can strum or finger pick like verse 1)

G               D
Don't say "Yes" run away now
Am
I'll meet you when your out
       C
Of the church at the back door
G              D
Don't wait or say a single vow
Am
You need to hear me out
         C (strum once)
And they said "Speak Now"

G D Am C

Verse 2:(same as VERSE 1)

   G               D              Am               C

e|--3-------3-------2-------2-------0-------0-------0-------0------|
B|--3---T---3---T---3---T---3---T---1---T---1---T---1---T---1---T--|
G|------A-------A-------A-------A-------A-------A-------A-------A--|
D|------P-------P-------P-------P-------P-------P-------P-------P--|
A|------------------0-------0-------0-------0-------3-------3------|
E|--3-------3------------------------------------------------------|

   G               D              Am               C

 --3-------3-------2-------2-------0-------0-------0-------0------|
 --3---T---3---T---3---T---3---T---1---T---1---T---1---T---1---T--|
 ------A-------A-------A-------A-------A-------A-------A-------A--|
 ------P-------P-------P-------P-------P-------P-------P-------P--|
 ------------------0-------0-------0-------0-------3-------3------|
 --3-------3------------------------------------------------------| (x2)

Repeat~

# Pre Chorus

# Chorus (x2)


D              Am    C G
HOooohuohuohh lalalala

D   Am     C
ouhouhoOOOOO


Bridge:

Em~(strum once)            C~
I hear the preacher say speak now
           G~        D~    D
Or forever hold your pe---ace
Am
There's a silence, there's my last chance
C
I stand up with shaky hands
    G       D~
All eyes on me

   Am                  C
 Horrified looks from everyone in the room
e|--0---------O---------0---------0--------|
B|--1----T----1----T----1----T----1---T----|
G|-------A---------A---------A--------A----|
D|-------P---------P---------P--------P----|
A|--0---------0---------3---------3--------|
E|-----------------------------------------|

      D                   D~
 But I'm only lookin' at you
e|-----2---------2---------2----|
B|-----3----T----3----T----3----|
G|----------A---------A----2----|
D|----------P---------P----0----|
A|-----0---------0---------0----|
E|-------------------------0----|


Repeat-VERSE 1
      -CHORUS (x2)


And that's it. Sorry if there's mistakes cause this is my first tab.
Have fun playing :D
Comments