Taylor Swift - Innocent Chords & Tabs

 

Taylor Swift Chords & Tabs

Version: 1 Type: Tab 0 ratings
1 star 2 stars 3 stars 4 stars 5 stars
comments

Innocent Tab

			     INNOCENT - Taylor Swift

alright so, I watched Taylor perform this song last night at the VMA's and i totally 
in love with it. Hoping that somebody had already tabbed it, i had to learn it right away 
looks like I'm the first one. I'm not sure of the strumming but here is a basic version.


intro & Verse 1 "i guess you really did it this time..."
e|--------------------------------------|
B|------------------2-------------------|
G|----6----8---9----2-------------------|
D|----6----8---9----2-------------------|
A|----4----6---7------------------------|
E|--------------------------------------|

pre-chorus "wasnt it easier...."
e|--------------------------------------|
B|--------------------------------------|
G|----4----6----------------------------|
D|----4----6----7-----------------------|
A|----2----4----7-----------------------|
E|--------------5-----------------------|


Chorus "its alright, just wait and see your.."
e|--------------------------------------|
B|--------------------------------------|
G|----9---------6-----------------------|
D|----9----9----6----7------------------|
A|----7----9----4----7------------------|
E|---------7---------5------------------|


Verse 2 "some things you cant speak of..."
e|--------------------------------------|
B|------------------2-------------------|
G|----6----8---9----2-------------------|
D|----6----8---9----2-------------------|
A|----4----6---7------------------------|
E|--------------------------------------|

[ Tab from: http://www.guitartabs.cc/tabs/t/taylor_swift/innocent_tab.html ]
pre-chorus "wasnt it easier...."
e|--------------------------------------|
B|--------------------------------------|
G|----4----6----------------------------|
D|----4----6----7-----------------------|
A|----2----4----7-----------------------|
E|--------------5-----------------------|


Chorus "its alright, just wait and see your.."
e|--------------------------------------|
B|--------------------------------------|
G|----9---------6-----------------------|
D|----9----9----6----7------------------|
A|----7----9----4----7------------------|
E|---------7---------5------------------|


(play this once before bridge)
e|--------------------------------------|
B|------------------2-------------------|
G|----6----8---9----2-------------------|
D|----6----8---9----2-------------------|
A|----4----6---7------------------------|
E|--------------------------------------|


Bridge "time turns flames to embers..."     "be brand new..."
e|--------------------------------------------------------------|
B|---------------2------------------------------2---------2-----|
G|-----6----4----2--x2---------------------6----2----6----2-----|
D|-----6----2----2-------------------------6----2----6----2-----|
A|-----4----2------------------------------4---------4----------|
E|--------------------------------------------------------------|

Chorus "its alright, just wait and see your.."
e|--------------------------------------|
B|--------------------------------------|
G|----9---------6-----------------------|
D|----9----9----6----7------------------|
A|----7----9----4----7------------------|
E|---------7---------5------------------|

Outro "you lost your balance on a tight rope..."
e|--------------------------------------|
B|------------------2-------------------|
G|----6----8---9----2-------------------|
D|----6----8---9----2-------------------|
A|----4----6---7------------------------|
E|--------------------------------------|
Comments