Taylor Swift - Breathe Chords & Tabs

 

Taylor Swift Chords & Tabs

Version: 1 Type: Tab 0 ratings
1 star 2 stars 3 stars 4 stars 5 stars
comments

Breathe Tab

   
Taylor Swift  Breathe
Tabbed by: Alejandro Manzano of Boyce Avenue

www.myspace.com/boyceavenue

video of us playing/singing it:
http://www.youtube.com/watch?v=8wO9ixu-HKU

Tuning: E  A  D  G  B  E (Standard)(Capo 1st fret)

 x  = mute
 ^  = hammer on or pull off

Intro/Verse:
-3----2---2^3-3-3---3---3---|
-3----3---3---3-3---3---3---|
-0----2---2---2-0---0---0---|
-0----0---0---0-0^2-2---2^0-|
-x----0---0---0-3---3---3---|
-3--------------------------|
[ Tab from: http://www.guitartabs.cc/tabs/t/taylor_swift/breathe_tab.html ]
Pre-Chorus:
-2-2^3-3--3----3----2----3----3----3----2-|
-3-3---3--3----3----3----3----3----3----3-|
-2-2---2--0----0----2----0----0----0----2-|
-0-0---0--2----0----0----2----2----0----0-|
-0-0---0--3----2----0----2----3----2----0-|
---------------3---------0---------3------|

Chorus:
-3----3----2----3----3----3----2-|
-3----3----3----3----3----3----3-|
-0----0----2----0----0----0----2-|
-2----0----0----2----2----0----0-|
-3----2----0----2----3----2----0-|
------3---------0---------3------|

Bridge:
-0----3----3----2----0----3----3----2-|
-0----3----3----3----0----3----3----3-|
-0----0----0----2----0----0----0----2-|
-2----2----0----0----2----2----0----0-|
-2----3----2----0----2----3----2----0-|
-0---------3----2----0---------3----2-|
Comments