Taylor Swift - Back To December Chords & Tabs

 

Back To December Chords & Tabs

Taylor Swift Chords & Tabs

Version: 7 Type: Tab 0 ratings
1 star 2 stars 3 stars 4 stars 5 stars
comments

Back To December Tab

--Back To December-- 
--Taylor swift-- 


Hi.!!!!! i dedicate this song for everyone and im very sure that this is 95% 
accurate hope you like this .;)

Contact me if you want me to widow some songs: jethro_arce@yahoo.com (:

Intro:

Guitar 1:
|--------------------------------------------------|
|--------------------------------------------------|
|-12-11-------11--------11-11h12-------------------| 2X
|-------12h14------12h14---------------------------|
|--------------------------------------------------|
|--------------------------------------------------|
  make it a little distorted and put some delay on this one.
Guitar 2:

|-----------------|
|-----------------|
|-7---------------|
|-7----4---5~-----| 2X
|-5----4---5~-----|
|------2---3~-----|

Verse:
[ Tab from: http://www.guitartabs.cc/tabs/t/taylor_swift/back_to_december_tab_ver_7.html ]
Guitar 1:
|-----------------|
|-----------------|
|-7---------7-----|
|-7--7--5---7-7---| 2X
|-5--7--5---5-7---|
|----5--3-----5---|

Guitar 2:
|-2--0--3---2-0---|
|-3--2--3---3-2---|
|-2--2--0---2-2---|
|-0--x--0---0-x---| 2x
|----x--2-----x---|
|----x--3-----x---|

Refrain:

Both Guitars:
|-----------------|
|-----------------|
|-4~--------------|
|-4~--7~-5~-------| 2X
|-2~--7~-5~-------|
|-----5~-3~-------|

Chorus:

Guitar 1:
|-------------------|
|-------------------|
|-7---------7~------|
|-7--4--5---7~-7~---| 2X
|-5--4--5---5~-7~---|
|----2--3------5~---|

Guitar 2:
|-2--2--3---2--0----|
|-3--2--3---3--2----|
|-2--2--0---2--2----|
|-0--4--0---0--x----| 2X
|----4--2------x----|
|----2--3------x----|

Verse 2 :

(same as verse 1)


Brigde:
|--------|
|--------|
|-4------|
|-4-7-5--|
|-2-7-5--|
|---5-3--|

Then just Reapet some part of this song: TNX ;)
Comments