Taylor Swift - 22 Chords & Tabs

 

22 Chords & Tabs

Taylor Swift Chords & Tabs

Version: 1 Type: Bass Tab 0 ratings
1 star 2 stars 3 stars 4 stars 5 stars
comments

22 Bass Tab

0:23 Pre-Chorus
G|-----------------------------------------------------------------|
D|-----------------------------------------------------------------|
A|-----------5-5\\-------------------------------------------------|
E|-3---3-33--------------------------------------------------------|
   1 + 2 + 3 + 4 + 1 + 2 + 3 + 4 + 1 + 2 + 3 + 4 + 1 + 2 + 3 + 4 +

G|-----------------------------------------------------------------|
D|-----------------------------------------------------------------|
A|-----------------------------------------------------------------|
E|-----------------------------------------------------------------|
   1 + 2 + 3 + 4 + 1 + 2 + 3 + 4 + 1 + 2 + 3 + 4 + 1 + 2 + 3 + 4 +

0:41 Chorus
G|-------------------------------------------------------------------|
D|o-----------------------------------------------------------------o|
A|o-----------5-5-5-3---------7-7-7-5---------3-3-3-5---------5-5-5-o|
E|--3----------------------------------------------------------------|
    1 + 2 + 3 + 4 + 1 + 2 + 3 + 4 + 1 + 2 + 3 + 4 + 1 + 2 + 3 + 4 +

G|-----------------------------------------------------------------|
D|-----------------------------------------------------------------|
A|-----------5-5-5-3---3-33--3-3-3-3---3-33--7-7-7-5---5-55--5-5-5-|
E|-3---3-33--------------------------------------------------------|
   1 + 2 + 3 + 4 + 1 + 2 + 3 + 4 + 1 + 2 + 3 + 4 + 1 + 2 + 3 + 4 +

1:09 Verse
Rest

1:27 Pre-Chorus
G|-----------------------------------------------------------------|
D|-----------------------------------------------------------------|
A|-----------5-5\\---------------------------5-5\\-----------------|
E|-3---3-33------------------------3---3-33------------------------|
   1 + 2 + 3 + 4 + 1 + 2 + 3 + 4 + 1 + 2 + 3 + 4 + 1 + 2 + 3 + 4 +
[ Tab from: http://www.guitartabs.cc/tabs/t/taylor_swift/22_btab.html ]
G|-----------------------------------------------------------------|
D|-----------------------------------------------------------------|
A|-----------5-5\\---------------------------5-5\\-----------------|
E|-3---3-33------------------------3---3-33------------------------|
   1 + 2 + 3 + 4 + 1 + 2 + 3 + 4 + 1 + 2 + 3 + 4 + 1 + 2 + 3 + 4 +

1:46 Chorus
G|-------------------------------------------------------------------|
D|o-----------------------------------------------------------------o|
A|o-----------5-5-5-3---------7-7-7-5---------3-3-3-5---------5-5-5-o|
E|--3----------------------------------------------------------------|
    1 + 2 + 3 + 4 + 1 + 2 + 3 + 4 + 1 + 2 + 3 + 4 + 1 + 2 + 3 + 4 +

G|-------------------------------------------------------------------|
D|o-----------------------------------------------------------------o|
A|o-----------5-5-5-3---3-33--3-3-3-3---3-33--7-7-7-5---5-55--5-5-5-o|
E|--3---3-33---------------------------------------------------------|x4
    1 + 2 + 3 + 4 + 1 + 2 + 3 + 4 + 1 + 2 + 3 + 4 + 1 + 2 + 3 + 4 +

2:41 Bridge
G|-----------------------------------------------------------------|
D|-----------------------------------------------------------------|
A|-------------------------------------------------5---5---5---5---|
E|-----------------------------------------------------------------|
   1 + 2 + 3 + 4 + 1 + 2 + 3 + 4 + 1 + 2 + 3 + 4 + 1 + 2 + 3 + 4 +

2:50 Chorus
G|-------------------------------------------------------------------|
D|o-----------------------------------------------------------------o|
A|o-----------5-5-5-3---------7-7-7-5---------3-3-3-5---------5-5-5-o|
E|--3----------------------------------------------------------------|
    1 + 2 + 3 + 4 + 1 + 2 + 3 + 4 + 1 + 2 + 3 + 4 + 1 + 2 + 3 + 4 +

G|-------------------------------------------------------------------|
D|o-----------------------------------------------------------------o|
A|o-----------5-5-5-3---3-33--3-3-3-3---3-33--7-7-7-5---5-55--5-5-5-o|
E|--3---3-33---------------------------------------------------------|x4
    1 + 2 + 3 + 4 + 1 + 2 + 3 + 4 + 1 + 2 + 3 + 4 + 1 + 2 + 3 + 4 +

Tabbed By Jack Mills
Comments