Taxiride - Everywhere You Go Chords & Tabs

 

Everywhere You Go Chords & Tabs

Taxiride Chords & Tabs

Version: 1 Type: Bass Tab 0 ratings
1 star 2 stars 3 stars 4 stars 5 stars
comments

Everywhere You Go Bass Tab

TAXIRIDE - "Everywhere You Go" - Bass Tab

Common Time(4/4)
Standard Tuning(EADG)


VERSE 1:
        (x8)                                  (x2) 
|-----------|------------------|------------------|
|*---------*|*-----------------|-----------------*|
|*-r-e-s-t-*|*-5-5-5-5-5-5-5-5-|-----------------*|
|-----------|------------------|-3-3-3-3-3-3-3-3--|
   1 2 3 4     1 & 2 & 3 & 4 &   1 & 2 & 3 & 4 &

|-----------------|-----------------|-----------------|
|-----------------|-----------------|-----------------|
|-5-5-5-5-5-5-5-5-|-2-2-2-2-2-2-2-2-|-3-3-3-3-3-3-3-3-|
|-----------------|-----------------|-----------------|
  1 & 2 & 3 & 4 &   1 & 2 & 3 & 4 &   1 & 2 & 3 & 4 &

|-----------------|
|-----------------|
|-0-0-0-0-0-0-0-0-|
|-----------------|
  1 & 2 & 3 & 4 &


PRE-CHORUS/GUITAR SOLO:
|-----------------|-----------------|-----------------|
|-----------------|-----------------|-----------------|
|-----------------|-2-2-2-2-2-2-2-2-|-----------------|
|-2-2-2-2-2-2-2-2-|-----------------|-2-2-2-2-2-2-2-2-|
  1 & 2 & 3 & 4 &   1 & 2 & 3 & 4 &   1 & 2 & 3 & 4 &

|-----------------|-----------------|-----------------|
|-----------------|-----------------|-----------------|
|-2-2-2-2-2-2-2-2-|-----------------|-----------------|
|-----------------|-0-0-0-0-0-0-0-0-|-2-2-2-2-3-3-3-3-|
  1 & 2 & 3 & 4 &   1 & 2 & 3 & 4 &   1 & 2 & 3 & 4 &

|-----------------|-----------------|
|-----------------|-----------------|
|-0-0-0-0-0-0-0-0-|-0-0-0-0-0-0-0-0-|
|-----------------|-----------------|
  1 & 2 & 3 & 4 &   1 & 2 & 3 & 4 &  


CHORUS:
|------------------|-----------------|-----------------|
|*-----------------|-----------------|-----------------|
|*-5-5-5-5-5-5-5-5-|-----------------|-0-0-0-0-0-0-0-0-|
|------------------|-3-3-3-3-3-3-3-3-|-----------------|
   1 & 2 & 3 & 4 &   1 & 2 & 3 & 4 &   1 & 2 & 3 & 4 &

               (x2)
|------------------|-----------------|-----------------|
|-----------------*|-----------------|-----------------|
|-0-0-0-0-0-0-0-0-*|-2-2-2-2-2-2-2-2-|-----------------|
|------------------|-----------------|-0-0-0-0-0-0-0-0-|
  1 & 2 & 3 & 4 &    1 & 2 & 3 & 4 &   1 & 2 & 3 & 4 &
[ Tab from: http://www.guitartabs.cc/tabs/t/taxiride/everywhere_you_go_btab.html ]
|-----------------|-----------------|-------------|
|-----------------|-----------------|-------------|
|-0-0-0-0-0-0-0-0-|-0-0-0-0-0-0-0-0-|-------------|
|-----------------|-----------------|-3-3-3-3-3-3-|
  1 & 2 & 3 & 4 &   1 & 2 & 3 & 4 &   1 & 2 3 & 4 

|-------------|
|-------------|
|-------------|
|-3-3-3-3-3-3-|
  1 & 2 3 & 4  

VERSE 2:
|---|--------------|-----------------|-----------------|
|---|----.---------|-----------------|-----------------|
|---|--.-5-5-5-5-5-|-----------------|-5-5-5-5-5-5-5-5-|
|-3/|/10-----------|-3-3-3-3-3-3-3-3-|-----------------|
  &   1  2 3 & 4 &   1 & 2 & 3 & 4 &   1 & 2 & 3 & 4 &

|-----------------|-----------------|-----------------|
|-----------------|-----------------|-----------------|
|-----------------|-5-5-5-5-5-5-5-5-|-2-2-2-2-2-2-2-2-|
|-3-3-3-3-3-3-3-3-|-----------------|-----------------|
  1 & 2 & 3 & 4 &   1 & 2 & 3 & 4 &   1 & 2 & 3 & 4 &

|-----------------|-----------------|
|-----------------|-----------------|
|-3-3-3-3-3-3-3-3-|-0-0-0-0-0-0-0-0-|
|-----------------|-----------------|
  1 & 2 & 3 & 4 &   1 & 2 & 3 & 4 &


BRIDGE(Key Change):
|-----------------|-----------------|-----------------|
|-----------------|-----------------|-----------------|
|-----------------|-1-1-1-1-1-----1-|-3-3-3-3-3-3-3-3-|
|-1-1-1-1-1-1-1-1-|-----------1-3---|-----------------|
  1 & 2 & 3 & 4 &   1 & 2 & 3 & 4 &   1 & 2 & 3 & 4 &

|-----------------|-----------------|-----------------|
|-----------------|-----------------|-----------------|
|-3-3-3-3-3-3-3-3-|-5-5-5-5-5-5-5-5-|-----------------|
|-----------------|-----------------|-3-3-3-3-3-3-3-3-|
  1 & 2 & 3 & 4 &   1 & 2 & 3 & 4 &   1 & 2 & 3 & 4 &

|-----------------|-----------------|
|-----------------|-----------------|
|-3-3-3-3-3-3-3-3-|-3-3-3-3-3-3-3-3-|
|-----------------|-----------------|
  1 & 2 & 3 & 4 &   1 & 2 & 3 & 4 &


END:
Chorus(x2), then:
|-------------|-----------|---------|
|-------------|-----------|---------|
|-------------|---------3-|-5-------|
|-3-3-3-3-3-3-|-3-3-3-3---|---------|
  1 & 2 3 & 4   1 & 2 3 4   1 2 3 4


By: Johari Taylor
E-mail: viking@powerup.com.au, or s369700@student.uq.edu.au
More Bass Tabs: http://www.powerup.com.au/~viking/basstab.htm

Comments