Taxiride - Creeping Up Slowly Chords & Tabs

 

Creeping Up Slowly Chords & Tabs

Taxiride Chords & Tabs

Version: 2 Type: Tab 1 rating
1 star 2 stars 3 stars 4 stars 5 stars
comments

Creeping Up Slowly Tab

   
Creeping Up Slowly by Taxiride
tabbed by JB (jim) [email: potatoboy2090@hotmail.com]

Good song by a good band. enjoy

Standard Tuning
Capo 1st Fret
TAB is relative to capo


Chords used:
C: 030210  F: 133211
Em:022000  Am:002210
G: 320033

Intro
  C
E----------------------------|-----------------------------------|
B-------1------------1-------|--------1--------------1-----------|
G-----0------------0---------|------0--------------0---0---------|
D-0h2----------2h3-----------|--0h2-----------2h3--------3-------|
A----------------------------|-----------------------------------|
E----------------------------|-----------------------------------|

E----------------------------|-----------------------------------|
B-------1------------1-------|--------1---------------1----------|
G-----0------------0---------|------0-----------------0----------|
D-0h2----------2h3-----------|--0h2-------------------2----------|
A----------------------------|------------------------3----------|
E----------------------------|-----------------------------------|
                                                             "gotta do it"

Verse
   Am        Em        F           G
1.ooh, let's kick on back to the places we know (places we know)
   Am        Em       F           G   
  the path isn't set yet, your life is unsure (you life is unsure)

[ Tab from: http://www.guitartabs.cc/tabs/t/taxiride/creeping_up_slowly_tab_ver_2.html ]
Prechorus 1
(strum each chord twice then mute; listen to the song for timing)
 C                             F
So your running in circles got a bug in your head
 Am                            G
Feel the needles and pins get em out of my head
 C                             F
Take a chance on a rumor, heard from a bet
      G
That something is gonna change

Chorus
C           F          C
Yeah, it's creepin up slowly
     F          C
she's takin me over
     G
it's turnin me on

C              F            C
with every breath that i take
 F             C
i roll up my dreams
     G
And blow them away

Verse

2. 
Am     Em   F             G
cruisin on blue street, my worries are freed (worries are freed)
Am     Em        F                 G
stressed out and dinned out, i know exactly what you need

Prechorus 2
(strum each chord twice then mute; listen to the song for timing)
 C                              F
Got ya life wrapped up in the palm of your hand
 Am                             G
Try to feel without feel but ya can't understand
       C               F
No you won't be satisfied, till you see
     Am             G
That something is gonna change

(Go to chorus)


Bridge: 
F                            G
    Rip it up and turn the page
G                 C
Slip through the cracks in the stage
                       F     
    And you will find me there
                        G
The person knows that upon your face

That your gonna change

-heres the rest of the lyrics-
saw you movin in slowly, got a glint in your eye
a moments suspicion, 'case you're wonderin why
and you won't be satisfied till you see
this meetin of the minds inside a meeeeee 


enjoy!
Comments