Tatu - Malchik Gay Chords & Tabs

 

Malchik Gay Chords & Tabs

Tatu Chords & Tabs

Version: 2 Type: Tab 0 ratings
1 star 2 stars 3 stars 4 stars 5 stars
comments

Malchik Gay Tab

   
Intro
e----------------------------------------------|
b----------------------------------------------|
g----------------------------------------------|
d--------------------------------5-5-5---------|
a--3-3---3-2-2---2-7-7---7-5-5-5-3-3-3---------|
e--1-1---1-0-0---0-5-5---5-3-3-3---------------|
[ Tab from: http://www.guitartabs.cc/tabs/t/tatu/malchik_gay_tab_ver_2.html ]
Verse
   F  Em Am G  C
e--1--0--5--3--3-|
b--1--0--5--3--5-|
g--2--0--5--4--5-|
d--3--2--7--5--5-|
a--3--2--7--5--3-|
e--1--0--5--3----|

Chorus
e--------------|
b--------5-----|
g--4--4--5--5--|
d--3--5--5--7--|
a--3--5--3--7--|
e--1--3-----5--|

Synth break
e--------------|
b--------------|
g--------------|
d-----------5--|
a--3--5--7--3--|
e--1--3--5-----|
Comments