Tatu - Malchik Gay Chords & Tabs

 

Malchik Gay Chords & Tabs

Tatu Chords & Tabs

Version: 1 Type: Tab 2 ratings
1 star 2 stars 3 stars 4 stars 5 stars
comments

Malchik Gay Tab

This song is really catchy

e-------------------------------------------------------------------------------------------|
B-------------------------------------------------------------------------------------------|
G-------------------------------------------------------------------------------------------|
D-------------------------------------------------------------------------------------------|
A---------------0-0--0------3-3-----------------0-0--0------3-3----------------0-0--0-------|
E-1-1--1-0-0--0--------3-3-3-----3-1-1--1-0-0--0-------3-3-3----3-1-1--1-0-0--0-------3-3-3-|


Verse
e----------------------------------------------------------------------------------------
B----------------------------------------------------------------------------------------
G---------------5-5-5-5-5-5-5----------------------------------------------5-5-5-5-5-5-5-
D-7-7-7-7-7-7-7-5-5-5-5-5-5-5-3-3-3-3-3-3-3-3-3-3-3-3-3-2-2--7-7-7-7-7-7-7-5-5-5-5-5-5-5-
A-7-7-7-7-7-7-7-3-3-3-3-3-3-3-3-3-3-3-3-3-3-3-3-3-3-3-3-2-2--7-7-7-7-7-7-7-3-3-3-3-3-3-3-
E-5-5-5-5-5-5-5---------------1-1-1-1-1-1-1-1-1-1-1-1-1-0-0--5-5-5-5-5-5-5---------------

e-------------------------------------------------------------------------0--|
B-------------------------------------------------------------------------0--|
G-----------------------------3-3-3-3-3-3-3-3-3-3-3-3-3-3-5-5-5-5-5-5-5-5-1--|
D-3-3-3-3-3-3-3-5-5-5-5-5-5-5-3-3-3-3-3-3-3-3-3-3-3-3-3-3-5-5-5-5-5-5-5-5-2--|
A-3-3-3-3-3-3-3-5-5-5-5-5-5-5-1-1-1-1-1-1-1-1-1-1-1-1-1-1-3-3-3-3-3-3-3-3-2--|
E-1-1-1-1-1-1-1-3-3-3-3-3-3-3---------------------------------------------0--|
[ Tab from: http://www.guitartabs.cc/tabs/t/tatu/malchik_gay_tab.html ]
chorus
e-------------------------------------------------------------------------------------
B-------------------------------------------------------------------------------------
G-----------------------------5-5--5-5-5--5---------------7-7--7-7-7--7---------------
D-3-3--3-3-3--3-5-5--5-5-5--5-5-5--5-5-5--5-7-7--7-7-7--7-7-7--7-7-7--7-5-5--5-5-5--5-
A-3-3--3-3-3--3-5-5--5-5-5--5-3-3--3-3-3--3-7-7--7-7-7--7-5-5--5-5-5--5-5-5--5-5-5--5-
E-1-1--1-1-1--1-3-3--3-3-3--3---------------5-5--5-5-5--5---------------3-3--3-3-3--3-

e------------------------------|
B------------------------------|
G-5-5--5-5-5--5----------------|
D-5-5--5-5-5--5-7-7--7-7-7--7--|
A-3-3--3-3-3--3-7-7--7-7-7--7--|
E---------------5-5--5-5-5--5--|

(in between riff)
e-----------------------------|
B-----------------------------|
G-----------------------------|
D-----------------------------|
A---------------0-0--0--------|
E-1-1--1-0-0--0--------3-3-3--|

Verse x 1

Chorus x 1

Solo
e------------------------------------------------------------------|
B------------------------------------------------------------------|
G-------------------------------------------------5-5-5-5-5-5-5-5--|
D-3-3-3-3-3-3-3-3-5-5-5-5-5-5-5-5-7-7-7-7-7-7-7-7-5-5-5-5-5-5-5-5--| x 2
A-3-3-3-3-3-3-3-3-5-5-5-5-5-5-5-5-7-7-7-7-7-7-7-7-3-3-3-3-3-3-3-3--|
E-1-1-1-1-1-1-1-1-3-3-3-3-3-3-3-3-5-5-5-5-5-5-5-5------------------|

chorus x 1

(in between riff)

chorus x 2

e--------------------------------------------------------|
B--------------------------------------------------------|
G--------------------------------------------------------|
D--------------------------------------------------------|
A--------------0-0--0------3-3----------------0-0--0-----|
E-1-1--1-0-0--0-------3-3-3----3-1-1--1-0-0--0-------3-3-|


Tabed by someone stolen by *Cetrie* :p
Comments