Tatu - All The Things She Said Chords & Tabs

 

All The Things She Said Chords & Tabs

Tatu Chords & Tabs

Version: 1 Type: Bass Tab 0 ratings
1 star 2 stars 3 stars 4 stars 5 stars
comments

All The Things She Said Bass Tab

 T.A.T.U. "All the Things She Said"
 The hits are kind of crazy, this isn't exact.
 Listen, and figure the timing. It's fast & easy

 Intro & Chorus & Outro:
G|------------------------------|
D|------------------------------|
A|-4444-44-3333-33--------------|
E|----------------1111-11-4444--| Repeat

 Verse:
G|-------------------------------------------------|
D|-------------------------------------------------|
A|--44-0h4-33------------3-44-0h4-33-------------3-|
E|-----------34/11-1/3/44------------34/11-1/3/44--|

G|--------------------------1-111-11111-1-5-555-55555-|
D|-3-333-33333-3-1-111-1111---------------------------|
A|----------------------------------------------------|
E|----------------------------------------------------|
[ Tab from: http://www.guitartabs.cc/tabs/t/tatu/all_the_things_she_said_btab.html ]
G|--------------------------------------|
D|-333-3-55-5555-5550555----------------|
A|--------------------------------3333--|
E|----------------------4444-4444-----1-|

 Solo:
G|---------------------------------------------------------|
D|--33333-3333333-11111-1111111----------------------------|
A|-------------------------------------------33333-3333333-|
E|------------------------------44444-4444444--------------|

G|---------------------------------------------------------|
D|--33333-3333333-11111-1111111----------------------------|
A|-------------------------------------------33333-3333333-|
E|------------------------------44444-4444444--------------|

G|---------------------------------|
D|-----3-1-----3-1-----3-1-----3-1-|
A|-4-3-----4-3-----4-3-----4-3-----|
E|---------------------------------|

 Tab'd by Nyte (Nytethorn@aol.com)
Comments