Taste - Lady Of Love Chords & Tabs

 

Lady Of Love Chords & Tabs

Taste Chords & Tabs

Version: 1 Type: Tab 0 ratings
1 star 2 stars 3 stars 4 stars 5 stars
comments

Lady Of Love Tab

   
Song: Lady Of Love
Band: Taste
NOTE: This Is The Australian Band From The 70's Named Taste.

Guitars: Joey Amenta, Ken Murdoch.
Drums: Virgil Donati (Yes, The Drummer With Planet X).
Bass: Micheal Gemini.
Vocals: Shared Around.

====================
= 06. Lady Of Love =
====================
**** = Theres A Scale Run But Its To Hard To Work Out. So I Tabbed A Chord Then
The End Bit The Scale Run.

Main Riff:
E|---------|-----------------|----------------|------------------|
B|---------|-----------------|----------------|------------------|
G|---------|-----------------|----------------|------------------|
D|------2~-|--------------2~-|-------------2~-|-------------2~---|
A|--2------|-3-2--0---2------|3-2--0---2------|3-2--0---2--------|
E|0---3----|--------0---3----|-------0---3----|-------0---3------|
  PM---|     PM----------|    PM----------|    PM----------------|

INTERLUDE:
E|--------------------12-12-12\-|
B|--------------------11-11-11\-|
G|--------------------12-12-12\-|
D|------------------------------|
A|---------3-2-0-5-5------------|
E|0--0-3-5----------------------|
INTRO:(Main Riff  X 2 or 3)

Verse 1: (Use Main Riff)
She Was Born To Take The Kind Of Love Not Everyman Could Give Her
Then Why Was I The Only One Who Could Please Her

F                   E                             G A G A
She Was Locked In A Cell Of The Rock 'N' Roll Widow
F                E                    G A G A G A
Everything She Doubts Seemed Everywhere
F           E             G A G A
Fame And Forute Was Her Lie
F                E               G   G A
All She Did Was Listen To A Tune

Lady Of Love

Break: Main Riff	X1

Verse 2: (Use Main Riff)
Lover, I Must Move On She Said To Me
One Day She Will Find Her Destiny
[ Tab from: http://www.guitartabs.cc/tabs/t/taste/lady_of_love_tab.html ]
F                   E                             G A G A
She Was Locked In A Cell Of The Rock 'N' Roll Widow
F                E                    G A G A G A
Everything She Doubts Seemed Everywhere
F           E               G A G A
Fame And Forute Was The Light
F                E               G   G A
All She Did Was Listen To A Tune

Lady Of Love

INTERLUDE

SOLO: (Near The End Isn't Right)
E|----------|----------------------|----------------|------------|--------------------|
B|5~~-3h4p3-|--3-------------------|----------------|5~~-----5-3-|--5-3-3h5p3---3-----|
G|----------|4---4-2h3p2h3-0-4-2~~-|0-4-2-0-2-2h3p2-|----0-4-----|4-----------4---2~~-|
D|----------|----------------------|----------------|------------|--------------------|
A|----------|----------------------|----------------|------------|--------------------|
E|----------|----------------------|----------------|------------|--------------------|

E|----------|-------------------|-----------|---------5-5-3~~-3b4--5p3---6b7~~-|
B|3b4-3b4..-|-------3b5..r3p1---|3-3b4-3b4--|-----3-5------------------3-------|
G|----------|-----4-----------2-|-----------|----------------------------------|
D|----------|-------------------|-----------|----------------------------------|
A|----------|3------------------|-----------|3---------------------------------|
E|----------|1------------------|-----------|1---------------------------------|
             ****			     ****
E|5-5-5-5p3---------------|----0---5-5--5-3-0--5-3-0-|6b7..-------|
B|----------5-3-3p1-------|0-3---3-------------------|------------|
G|------------------2~~---|--------------------------|------4~~~~-|
D|------------------------|--------------------------|------------|
A|------------------------|--------------------------|------------|
E|------------------------|--------------------------|------------|

Lady Of Love

Break:
Just Stuff Around With Some Full And Half Bends On The 3rd String Around
The 4th Fret.

Repeat Intro

Then The Outro:
E|------------|
B|------------|Then Slide Up The B String And Whallop An A Chord To End.
G|------------|
D|------------|
A|7--3--5--2--|
E|5--1--3--0--|

Thanks.
Email Me At:   wadey44@hotmail.com
Brett Wade
Comments