Tarrega Francisco - Gran Vals Chords & Tabs

 

Gran Vals Chords & Tabs

Tarrega Francisco Chords & Tabs

Version: 1 Type: Tab 0 ratings
1 star 2 stars 3 stars 4 stars 5 stars
comments

Gran Vals Tab

You might recognise bars 14-17 as the 'Nokia theme'.

3/4 time. Enjoy!

 - igorski

 E |----------|----------|----------|-2--------|-4--------|-4-----5--|-5-----4--|4p2-------|
 B |-----2-/5-|-5--------|-7--------|----2--2--|----2--2--|----2--2--|----2--2--|----3--3--|
 G |----------|----6--6--|----6--6--|----2--2--|----2--2--|----2--2--|----2--2--|----4--4--|
 D |----------|----7--7--|----7--7--|----------|----------|----------|----------|----------|
 A |----------|-0--------|----------|-0--------|----------|-0--------|----------|-2--------|
 E |----------|----------|-0--------|----------|-0--------|----------|-0--------|----------|
[ Tab from: http://www.guitartabs.cc/tabs/t/tarrega_francisco/gran_vals_tab.html ]
 E |----------|-2--------|-4-----5-/|-9--------|-7--------|12p10-----|-9p7------|-7p5------|
 B |----------|----3--3--|----3--3--|----9--9--|----9--9--|-------9--|----------|-------5--|
 G |----------|----4--4--|----4--4--|----7--7--|----7--7--|----11----|----7--9--|----6-----|
 D |----------|----------|----------|----------|----------|----------|----------|----------|
 A |-2--4--5--|----------|-2--------|----------|-7--------|----------|----------|-0--------|
 E |----------|-0--------|----------|-0--------|----------|-0--------|-0--------|----------|

 E |----------|----------|----------|-2--------|-4--------|-4--------|-5--------|-12-------|
 B |-----2-/5-|-5--------|-7--------|----2--2--|----2--2--|----2--2--|----2--2--|----12-12-|
 G |----------|----6--6--|----6--6--|----2--2--|----2--2--|----2--2--|----2--2--|----11-11-|
 D |----------|----7--7--|----7--7--|----------|----------|----------|----------|-0--------|
 A |-------|-0--------|----------|-0--------|----------|-0--------|-0--------|----------|
 E |----------|----------|-0--------|----------|-0--------|----------|----------|----------|

 E |-10-------|----------|-10-------|-9--------|----------|----------|-7--------|-5--------|-----|
 B |----12-12-|-7--------|----10-10-|----10-10-|-5--------|-7--------|----9--9--|-5--------|-----|
 G |----11-11-|----7--7--|----10-10-|----9--9--|----6--6--|----8--8--|----7--7--|-6--------|-----|
 D |-0--------|----9--9--|-0--------|----------|----7--7--|----9--9--|----------|----------|-----|
 A |----------|----------|----------|-7--------|----------|----------|-7--------|----7-----|-----|
 E |----------|-7--------|----------|----------|-0--------|-0--------|----------|-5-----9--|-5---|
Comments