Tarmac - Je Cherche Chords & Tabs

 

Je Cherche Chords & Tabs

Tarmac Chords & Tabs

Version: 1 Type: Bass Tab 0 ratings
1 star 2 stars 3 stars 4 stars 5 stars
comments

Je Cherche Bass Tab

   
----------------------------------------------------------------------------
                      TARMAC-Je cherche Bass tab
----------------------------------------------------------------------------
Tabbed by steven

It's an easy song.This a good tab to train yourself!

Tunning normal(G D A E)

at the beginning of the song, play this:
[ Tab from: http://www.guitartabs.cc/tabs/t/tarmac/je_cherche_btab.html ]
Intro:
G:---------------------------------------------------|
D:---------------------------------------------------|
A:12-12-12-12-12-12-12-12-7-7-7-7-7-7-7-7--5-7-8-7---|
E:---------------------------------------------------|

Then play the verse all along the song:

G:---------------------------------------------------|
D:---------------------------------------------------|
A:--5-3---5-4----------------------------------------|
E:3-----3-----0-5-4-0--------------------------------|

At the end of the song, play this:

G:---------------------------------------------------|
D:---------------------------------------------------|
A:--5-3---5-4----------------------------------------|
E:3-----3--------------------------------------------|

That's it!Easy song!!
Have fun!
Steven
Comments