Taproot - Welcome Chords & Tabs

 

Welcome Chords & Tabs

Taproot Chords & Tabs

Version: 1 Type: Tab 0 ratings
1 star 2 stars 3 stars 4 stars 5 stars
comments

Welcome Tab

   
Band- Taproot
Album- Welcome

Tracks:
1.Mine
2.Poem
3.Everything
4.Art
5.Myself
6.When
7.Fault
8.Sumtimes
9.Breathe
10.Like
11.Dreams
12.Time

---------------------------------------------

Band:Taproot
Song:Mine
Album:Welcome
Tuning:AEADGB

Intro
|-------------------|
|-------------------|
|-------------------|
|--0-0-0-----0-0-0--|
|--0-0-0-----0-0-0--|
|--0-0-0-----0-0-0--|

Verse
|-----------------|
|-----------------|
|--8---8-5---7-5--|
|--6---6-5---5-5--|
|-----------------|
|-----------------|

One Part in the second verse is like this:

|--------------------------------------------|
|--------------------------------------------|
|----8---8---8----------7---7---7------------|
|--6---6---6---6------5---5---5---5----------|
|--------------------------------------------|
|--------------------------------------------|

There are two ways to do the chorus...One is easier and one sounds better.
Whatever your preference is....

Easier way:
|--------------------------------------------|
|--------------------------------------------|
|--------------------------------------------|
|--12-10-10-10-10-10-12-10-10-10-10-10-12-8--|
|--12-10-10-10-10-10-12-10-10-10-10-10-12-8--|
|--12-10-10-10-10-10-12-10-10-10-10-10-12-8--|

Better sounding way:
|-------------------------------|
|-------------------------------|
|--7-5-5-5-5-5-7-5-5-5-5-5-7-3--|
|--X-X-X-X-X-X-X-X-X-X-X-X-X-X--|
|--5-3-3-3-3-3-5-3-3-3-3-3-5-1--|
|-------------------------------|

Then theres that one thing, i guess it's an interlude:
|------------------|
|------------------|
|------------------|
|------------------|
|---------5-3------|
|---3-6-8-----3-0--|

------------------------------------------------------

Band:Taproot
Song:Poem
Album:Welcome
Tuning:Standard

E|----------------------------------------------------------|----------------||
B|----------------------------------------------------------|----------------||
G|----------------------------------------------------------|----------------||
D|--9-9--5-5-5--12-12--7-7-7--9-9--5-5-5--5/7-7-5/7-7--7/10-|9-9--9-9--9/10--||
A|--9-9--5-5-5--12-12--7-7-7--9-9--5-5-5--5/7-7-5/7-7--7/10-|9-9--9-9--9/10--||
E|--7-7--3-3-3--10-10--5-5-5--7-7--3-3-3--3/5-5-3/5-5--5/8--|7-7--7-7--7/8---||

E|---------------------------------------------------------------|-------------------------||
B|---------------------------------------------------------------|-------------------------||
G|---------------------------------------------------------------|-------------------------||
D|-9-9--9-9--9/10--9-9--9-9--9/10--9-9--9-9--9/10--9-9--9-9--9/10|5/7-7-5/7-7--7/10--------||
A|-9-9--9-9--9/10--9-9--9-9--9/10--9-9--9-9--9/10--9-9--9-9--9/10|5/7-7-5/7-7--7/10--------||
E|-7-7--7-7--7/8---7-7--7-7--7/8---7-7--7-7--7/8---7-7--7-7--7/8-|3/5-5-3/5-5--5/8---------||

E|------------------------------------------------------|--------------------||
B|------------------------------------------------------|--------------------||
G|------------------------------------------------------|--------------------||
D|-7/9-9-7/9-9-9/10--7/9-9-7/9-9-9/10--7/9-9-7/9-9-9/10-|--------------------||
A|-7/9-9-7/9-9-9/10--7/9-9-7/9-9-9/10--7/9-9-7/9-9-9/10-|--------------------||
E|-5/7-7-5/7-7-7/8---5/7-7-5/7-7-7/8---5/7-7-5/7-7-7/8--|--------------------||

E|------------------|--------------------------------------------------------------------------------||
B|------------------|--------------------------------------------------------------------------------||
G|------------------|--------------------------------------------------------------------------------||
D|-5/7-7-5/7-7--7/10|-9-9---9-9--9-9--9-9--9-9--9/10--9-9--9-9--9/10--9-9--9-9--9/10--9-9--9-9--9/10-||
A|-5/7-7-5/7-7--7/10|-9-9---9-9--9-9--9-9--9-9--9/10--9-9--9-9--9/10--9-9--9-9--9/10--9-9--9-9--9/10-||
E|-3/5-5-3/5-5--5/8-|-7-7---7-7--7-7--7-7--7-7--7/8---7-7--7-7--7/8---7-7--7-7--7/8---7-7--7-7--7/8--||

E|--------------------|------||
B|--------------------|------||
G|--------------------|------||
D|-9-9---9-9---9-9----|9999--||
A|-9-9---9-9---9-9----|7777--||
E|-7-7---7-7---7-7----|7777--||

-------------------------------------------------

Band:Taproot
Song:Everything
Album:Welcome
Tuning:ADGCEA

Intro (Gtr.1)

|-0-0-0-0-0-0-0-0-0-0-0-0-0-0-0-0-0-0-0-0-0-0-0-0-0-0-0-0-0-0-0-0-0-0-0-|
|-7-7-7-7-7-7-7-7-7-7-7-5-5-5-5-5-5-5-5-5-5-5-5-7-7-7-7-7-7-7-7-7-7-7-7-|
|-----------------------------------------------------------------------|
|-----------------------------------------------------------------------|
|-----------------------------------------------------------------------|
|-----------------------------------------------------------------------|

--0-0-0-0-0-0-0-0-0-0-0-0-0-0-0-0-0-0-0-0-0-0-0-0-0-0-0-0-0-0-0-0-0-0-0--|
--4-4-4-4-4-4-4-4-4-4-4-9-9-9-9-9-9-9-9-9-9-9-9-101010101010101010101010-|
-------------------------------------------------------------------------|
-------------------------------------------------------------------------|
-------------------------------------------------------------------------|
-------------------------------------------------------------------------|

--0-0-0-0-0-0-0-0-0-0-0-0-(0)-|
--4-4-4-4-4-4-4-4-4-4-4-4-(4)-|
------------------------------|
------------------------------|
------------------------------|
------------------------------|

(Gtr.2)

|---------------------|
|---------------------|
|---------------------|
|-0h2-2---------------|
|-0h2-2-2-0-2-3-2-0-2-|
|---------------------|x7
  p.m................
 Gtr.2
|-------|
|-------|
|-------|
|-0h2-2-|
|-0h2-2-|
|-------|

Gtr.1 (Before the Verse)
|-------------|
|-------------|
|-/4-2--------|
|------2-1~-2-|
|-----------0-|
|-------------|

Verse (Gtr.2) Distorted

|-------|
|-------|
|-------|
|-0h2-2-|
|-0h2-2-|
|-------|x4

In the Background guitar 1 (clean)

|------------------------------|
|------------------------------|
|------------------------------|
|-2-4-4-4-5-4-2--2-4-4-4-2-2h5-|
|-0-2-2-2-3-2-0--0-2-2-2-0-0h3-|
|------------------------------|x4

Gtr.1

|---------7-----------------|
|------10---10--------------|
|-----9-------9----------10-|
|---9-----------9-----10----|
|-7---------------7/8-------|
|---------------------------|x2

Chorus

 Gtr.1
|--------------------------------------------------------------------------------|
|--------------------------------------------------------------------------------|
|----------4-2-----------------4-2-4-4^-2---------4-2----------------------------|
|-2h4-4-4------2-1-2~--2h4-4-4------------2h4-4-4-----2-1-2~-2h4-4-4-------------|
|-0h2-2-2----------0~--0h2-2-2------------0h2-2-2---------0~-0h2-2-2--2-0-2-2^-0-|
|--------------------------------------------------------------------------------|
|Gtr.2                                                                           |
|--------------------------------------------------------------------------------|
|--------------------------------------------------------------------------------|
|--------------------------------------------------------------------------------|
|-0h2-2-2--7-5-----0~--0h2-2-2-7-5-7-7^-5-2h4-4-4-7-5-----0~-0h2-2-2--7-5--------|
|-0h2-2-2------7-6-0~--0h2-2-2------------0h2-2-2-----7-6-0~-0h2-2-2------7-6--0-|
|--------------------------------------------------------------------------------|


Bridge

 Gtr.1
|-------0-0-0-0-0--------0-0-0-0~-|
|-------7-5-4-5-4--------7-5-4-5--|
|---------------------------------|
|-2h4-4------------2h4-4----------|
|-0h2-2------------0h2-2----------|
|---------------------------------|x3
|Grt.2                            |
|---------------------------------|
|---------------------------------|
|---------------------------------|
|-0h2-2------------0h2-2----------|
|-0h2-2------------0h2-2----------|
|---------------------------------|x3


|-------------------|
|-------------------|
|-------/4-2--------|
|-2h4-4------2-1~-2-|
|-0h2-2-----------0-|
|-------------------|


Outro
 Gtr.1
|------------------------------|
|------------------------------|
|------------------------------|
|-0-2-2-2-3-2-0--0-2-2-2-0-0h3-|
|-0-2-2-2-3-2-0--0-2-2-2-0-0h3-|
|------------------------------|x7

|---------------------------|
|---------------------------|
|---------------------------|
|-0-2-2-2-3-2-0--0----------|
|-0-2-2-2-3-2-0--0-2-2^-2-0-|
|---------------------------|


(Gtr.1)

|-0-0-0-0-0-0-0-0-0-0-0-0-0-0-0-0-0-0-0-0-0-0-0-0-0-0-0-0-0-0-0-0-0-0-0-|
|-7-7-7-7-7-7-7-7-7-7-7-5-5-5-5-5-5-5-5-5-5-5-5-7-7-7-7-7-7-7-7-7-7-7-7-|
|-----------------------------------------------------------------------|
|-----------------------------------------------------------------------|
|-----------------------------------------------------------------------|
|-----------------------------------------------------------------------|

--0-0-0-0-0-0-0-0-0-0-0-0-0-0-0-0-0-0-0-0-0-0-0-0-0-0-0-0-0-0-0-0-0-0-0--|
--4-4-4-4-4-4-4-4-4-4-4-9-9-9-9-9-9-9-9-9-9-9-9-101010101010101010101010-|
-------------------------------------------------------------------------|
-------------------------------------------------------------------------|
-------------------------------------------------------------------------|
-------------------------------------------------------------------------|

--0-0-0-0-0-0-0-0-0-0-0-0-(0)-|
--4-4-4-4-4-4-4-4-4-4-4-4-(4)-|
------------------------------|
------------------------------|
------------------------------|
------------------------------|

(Gtr.2)

|-------------------|
|-------------------|
|-------------------|
|-2h2-2-------------|
|-0h2-2-2-2-2-3-2-2-|
|-------------------|x7
  p.m..............

End on

|---------|
|---------|
|---------|
|-2h4-4\\-|
|-0h2-2\\-|
|---------|
|Gtr.2    |
|---------|
|---------|
|---------|
|-0h2-2\\-|
|-0h2-2\\-|
|---------|

------------------------------------------

Band:Taproot
Song:Art
Album:Welcome
Tuning:ADGCEA

Intro

 Gtr.1
|------------------------------------------------|
|------------------------------------------------|
|------12---------------------13-----------------|
|----9-----9---9------------9----9----9----------|
|-10--------10--10-10/12-11--------11---11-11/12-|
|------------------------------------------------|
|Gtr.2                                           |
|------------------------------------------------|
|-------6----------------------7-----------------|
|------------------------------------------------|
|----7-----7---7------------7----7-----7---------|
|-7----------7----7--7/9--7---------7----7---7/9-|
|------------------------------------------------|

Verse

|-------0-----------0----------0----------0~-|
|-----7---7-------7---7------7---7-----------|
|--------------------------------------------|
|---0----------0-----------0----------0------|
|-5----------7-----------9----------3--------|
|--------------------------------------------|
|Gtr.2
|-
|-
|-
|-
|-
|-

Chorus

 Gtr.1
|-----------------------------------------|
|-----------------------------------------|
|-----------------------------------------|
|-----------------------------------------|
|-5--5-5---5--5-5-----2--2-2---2--2-2-----|
|-3--3-3---3--3-3-/5~-0--0-0---0--0-0-0h2-|
|Gtr.2                                    |
|-----------------------------------------|
|-----------------------------------------|
|-----------------------------------------|
|-----------------------------------------|
|-5--5-5---5--5-5-----2--2-2---2--2-2-----|
|-3--3-3---3--3-3-/5~-0--0-0---0--0-0-0h2-|


 Gtr.1
|--------------------------------------------|
|--------------------------------------------|
|--------------------------------------------|
|--------------------------------------------|
|-5--5-5---5--5-5-----2~----11-11-11/12/14---|
|-3--3-3---3--3-3-/5~-0~---------------------|
|Gtr.2                                       |
|--------------------------------------------|
|--------------------------------------------|
|--------------------------------------------|
|--------------------------------------------|
|-5--5-5---5--5-5----------------------------|
|-3--3-3---3--3-3-/5~-0~-----------------0h2-|


|--------------------------------------------|
|--------------------------------------------|
|--------------------------------------------|
|--------------------------------------------|
|-5--5-5---5--5-5-----2~----11-11-11/12/14---|
|-3--3-3---3--3-3-/5~-0~---------------------|
|Gtr.2                                       |
|--------------------------------------------|
|--------------------------------------------|
|--------------------------------------------|
|--------------------------------------------|
|-5--5-5---5--5-5----------------------------|
|-3--3-3---3--3-3-/5~-0~-----------------0h2-|


 Gtr.1
|--------------------------------------|
|--------------------------------------|
|--------------------------------------|
|--------------------------------------|
|-5--5-5---5--5-5-----2--2-2---2--2-2--|
|-3--3-3---3--3-3-/5~-0--0-0---0--0-0--|
|Gtr.2                                 |
|--------------------------------------|
|--------------------------------------|
|--------------------------------------|
|--------------------------------------|
|-5--5-5---5--5-5-----2--2-2---2--2-2--|
|-3--3-3---3--3-3-/5~-0--0-0---0--0-0--|

--------------------------------------------------

Band:Taproot
Song:Myself
Album:Welcome
Tuning:Standard A

Intro

|-------------------------------------------|
|-------------------------------------------|
|-------------------------------------------|
|----------------------------------------2~-|
|----------------------------------------1~-|
|-1-1-1-1---1-1-1-1---1-1-1-1----1-1-1-1-0~-|

Verse

|-9-9-9-9-9-9--5-5-5-5-5-5----------------------------------------|
|-7-7-7-7-7-7--3-3-3-3-3-3--14-14-14-14-14-14---12-12-12-12-12-12-|
|-0-0-0-0-0-0--0-0-0-0-0-0--11-11-11-11-11-11---11-11-11-11-11-11-|
|---------------------------0--0--0--0--0--0----0--0--0--0--0--0--|
|-----------------------------------------------------------------|
|-----------------------------------------------------------------|

End the Verse with

|---------|
|---------|
|-6-6-6-6-|
|-4-4-4-4-|
|-2-2-2-2-|
|---------|

Chorus

|----------------------------|
|----------------------------|
|----------------------------|
|-------------------------2~-|
|-3-3-3-3---3---3---3-3-3-1~-|
|-1-1-1-1---1---1---1-1-1-0~-|

|----------------------------|
|----------------------------|
|----------------------------|
|-------------------------2~-|
|-3-3-3-3---3---3---3-3-3-1~-|
|-1-1-1-1---1---1---1-1-1-0~-|

|----------------------------|
|----------------------------|
|----------------------------|
|-------------------------2~-|
|-3-3-3-3-----------3-3-3-1~-|
|-1-1-1-1-----------1-1-1-0~-|

|----------------------------|
|----------------------------|
|----------------------------|
|-------------------------2~-|
|-3-3-3-3---3---3---3-3-3-1~-|
|-1-1-1-1---1---1---1-1-1-0~-|


Bridge

|-------------------------------------------------|
|-------------------------------------------------|
|-8-8-8-8-8-8-4-4-4-4-4-4-------------4-4-4-4-4-4-|
|-6-6-6-6-6-6-2-2-2-2-2-2-------------2-2-2-2-2-2-|
|-4-4-4-4-4-4-0-0-0-0-0-0-4-4-4-4-4-4-0-0-0-0-0-0-|
|-------------------------2-2-2-2-2-2-------------|

-----------------------------------------------------

Band:Taproot
Song:When
Album:Welcome
Tuning:Standard

Intro
--------------------------------------------------------|
--------------------------------------------------------|
--------------------------------------------------------|
---------5-----------------0--7--0----------------------|10 times
--0--2------2--0--2--0----------------------------------|
--------------------------------------------------------|

  1st riff
---------------------------------------------------------|
---------------------------------------------------------|
---------------------------------------------------------|
--4--5--4----2--2--2--4--5--4-----7--7--7----------------|2 times
--2--3--2---------------2--3--2--------------------------|
---------------------------------------------------------|

 verse
----------------------------------------------------------|
----------------------------------------------------------|
----------------------------------------------------------|
--4-4-4-4-----4h5/4-4-4-----------------------------------|
--4-4-4-4-----4h5/4-4-4------2--2--2--2-----5-------------|
--2-2-2-2--0--2h3/2-2-2--2---2--2--2--2--0--5-------------|

----------------------------------------------------------|
----------------------------------------------------------|
----------------------------------------------------------|
--4-4-4-4-----4h5/4-4-4------x-x-x--0--5------------------|
--4-4-4-4-----4h5/4-4-4------x-x-x--5---------------------|
--2-2-2-2--0--2h3/2-2-2--2---x-x-x--5---------------------|

------------------------------------------------------------|
------------------------------------------------------------|
------------------------------------------------------------|
--4-4-4-4-----4h5/4-4-4-------------------------------------|
--4-4-4-4-----4h5/4-4-4-----2--2--2--2-----5----------------|
--2-2-2-2--0--2h3/2-2-2--2--2--2--2--2--0--5----------------|

-----------------------------------------------------------|
-----------------------------------------------------------|
-----------------------------------------------------------|
--4-4-4-4-----4h5/4-4-4------x-x-x-------------------------|
--4-4-4-4-----4h5/4-4-4------x-x-x-------------------------|
--2-2-2-2--0--2h3/2-2-2--2---x-x-x-------------------------|

   play intro  8 times

   play 1st riff twice

   play the verse


Solo
---------------------------------------------------------------------|
---------------------------------------------------------------------|
-6--6--0-3-4--6--6--9--7-6-7-6--5--5--0-2-3--4--4--5-4-2-0-4----2----| times
---------------------------------------------------------------------|
---------------------------------------------------------------------|
---------------------------------------------------------------------|

2nd riff
----------------------------------------------|
----------------------------------------------|
----------------------------------------------|
--0---0---0---0---0---0---0-------------------|
--2---3---2---0---0---0---0-------------------|
--2---3---2---0---5---5---5-------------------|

----------------------------------------------------

Band:Taproot
Song:Fault
Album:Welcome
Tuning:ADGCEA

Intro (Mike and Steph)

|----|
|----|
|----|
|----|
|-6^-|
|-0--|
 Bend up and down at a moderate speed

Chorus

 Mike
|---------------------------|
|---------------------------|
|---------------------------|
|----7-6-x-6-7--5-5-5-5-5-5-|
|---------------3-3-3-3-3-3-|
|-0-------------------------|
|Steph                      |
|---------------------------|
|---------------------------|
|---------------------------|
|----5-4-x-4-5--3-3-3-3-3-3-|
|---------------3-3-3-3-3-3-|
|-0-------------------------|
[ Tab from: http://www.guitartabs.cc/tabs/t/taproot/welcome_tab.html ]
 Mike
|---------------------------|
|---------------------------|
|---------------------------|
|----7-6-x-6-7--5-5-5-------|
|---------------3-3-3-3-3-3-|
|-0-------------------1-1-1-|
|Steph                      |
|---------------------------|
|---------------------------|
|---------------------------|
|----5-4-x-4-5--3-3-3-------|
|---------------3-3-3-3-3-3-|
|-0-------------------1-1-1-|

 Mike
|------------------------------------------------------|
|------------------------------------------------------|
|----7-6-x-6-7------------------7-6-x-6-7--------------|
|---------------5-5-5-5-5-5----------------5-5-5-------|
|---------------3-3-3-3-3-3----------------3-3-3-3-3-3-|
|-0--------------------------0-------------------1-1-1-|
|Steph                                                 |
|------------------------------------------------------|
|------------------------------------------------------|
|------------------------------------------------------|
|----5-4-x-4-5--3-3-3-3-3-3-----5-4-x-4-5--3-3-3-------|
|---------------3-3-3-3-3-3----------------3-3-3-3-3-3-|
|-0--------------------------0-------------------1-1-1-|

Verse
 Mike
|-------------------|
|-------------------|
|-------------------|
|-------5-5-7-7-7-7-|
|-2-2-2-3-3-5-5-5-5-|
|-0-0-0-------------|

 Mike
|----------------------------------|---------|
|----------------------------------|-7-7-7-7-|
|-----11---------4------7--------9-|-x-x-x-x-|
|---9----9-----2------5---5----7---|-5-5-5-4-|
|-7----------0------3--------5-----|---------|
|----------------------------------|---------|

Prechorus

 Mike
|-----------------------------|
|-----------------------------|
|-----------------------------|
|-2-2-2-4-4-4-5-5-5-7-7-7-7-7-|
|-0-0-0-2-2-2-3-3-3-5-5-5-5-5-|
|-----------------------------|
|Steph
|-----------------------------|
|-----------------------------|
|-----------------------------|
|-0-0-0-2-2-2-3-3-3-5-5-5-5-5-|
|-0-0-0-2-2-2-3-3-3-5-5-5-5-5-|
|-----------------------------|

Bridge

|----------------------------------------------------|
|-9-9-9-9-9/1111111111/12-12-12-12-12/14-14-14-14-14-|
|-x-x-x-x-x-x-x-x-x-x--x--x--x--x--x--x--x--x--x--x--|
|-7-7-7-7-7/9-9-9-9-9-/10-10-10-10-10/12-12-12-12-12-|
|----------------------------------------------------|
|----------------------------------------------------|x3


 Gtr.1
|----------------------------------------------------|
|-9-9-9-9-9/1111111111/12-12-12-12-12/14-14-14-14-14-|
|-x-x-x-x-x-x-x-x-x-x--x--x--x--x--x--x--x--x--x--x--|
|-7-7-7-7-7/9-9-9-9-9-/10-10-10-10-10/12-12-12-12-12-|
|----------------------------------------------------|
|----------------------------------------------------|
|Gtr.2                                               |
|----------------------------------------------------|
|-9-9-9-9-9/1111111111/12-12-12-12-12/14-14-14-14-14-|
|-x-x-x-x-x-x-x-x-x-x--x--x--x--x--x--x--x--x--x--x--|
|-7-7-7-7-7/9-9-9-9-9-/10-10-10-10-10/12-12-12-12-12-|
|----------------------------------------------------|
|----------------------------------------------------|


 Mike
|--------------------------------------------------------|
|-9-9-9-9-9/11-11-11-11-11/12-12-12-12-12/14-14-14-14-14-|
|-x-x-x-x-x-x--x--x--x--x--x--x--x--x--x--x--x--x--x--x--|
|-7-7-7-7-7/9--9--9--9--9-/10-10-10-10-10/12-12-12-12-12-|
|--------------------------------------------------------|
|--------------------------------------------------------|
|Steph                                                   |
|--------------------------------------------------------|
|-111111111/12-12-12-12-12\5--5--5--5--5/7--7--7--7--7-7-|
|-x-x-x-x-x-x--x--x--x--x--x--x--x--x--x-x--x--x--x--x-x-|
|-9-9-9-9-9/10-10-10-10-10\3--3--3--3--3/5--5--5--5--5-5-|
|--------------------------------------------------------|
|--------------------------------------------------------|

 Mike
|----------------------------------------------------|
|-9-9-9-9-9/1111111111/12-12-12-12-12/14-14-14-14-14-|
|-x-x-x-x-x-x-x-x-x-x--x--x--x--x--x--x--x--x--x--x--|
|-7-7-7-7-7/9-9-9-9-9-/10-10-10-10-10/12-12-12-12-12-|
|----------------------------------------------------|
|----------------------------------------------------|
|Steph                                               |
|----------------------------------------------------|
|----------------------------------------------------|
|----------------------------------------------------|
|----------------------------------------------------|
|-2-2-2-2-2-2~--------5--5--5--5--5---5~-------------|
|-0-0-0-0-0-2~--------3--3--3--3--3---5~-------------|

 Mike
|--------------------------------------------------------|
|-1313131313/14-14-14-14-14\7--7--7--7--7/9--9--9--9--9--|
|-x-x-x-x-x-x-x-x-x-x--x--x-x--x--x--x--x-x--x--x--x--x--|
|-1111111111/12-12-12-12-12\5--5--5--5--5/7--7--7--7--7--|
|--------------------------------------------------------|
|--------------------------------------------------------|
|Steph                                                   |
|--------------------------------------------------------|
|--------------------------------------------------------|
|--------------------------------------------------------|
|--------------------------------------------------------|
|-2-2-2-2-2---2~-------------5--5--5--5--5--5~-----------|
|-0-0-0-0-0---2~-------------3--3--3--3--3--5~-----------|


 Mike
|----------------------------------------------------|
|-9-9-9-9-9/1111111111/12-12-12-12-12/14-14-14-14-14-|
|-x-x-x-x-x-x-x-x-x-x--x--x--x--x--x--x--x--x--x--x--|
|-7-7-7-7-7/9-9-9-9-9-/10-10-10-10-10/12-12-12-12-12-|
|----------------------------------------------------|
|----------------------------------------------------|


 Mike
|--------------------------------------------------------|
|-9-9-9-9-9/11-11-11-11-11/12-12-12-12-12/14-14-14-14-14-|
|-x-x-x-x-x-x--x--x--x--x--x--x--x--x--x--x--x--x--x--x--|
|-7-7-7-7-7/9--9--9--9--9-/10-10-10-10-10/12-12-12-12-12-|
|--------------------------------------------------------|
|--------------------------------------------------------|
|Steph                                                   |
|--------------------------------------------------------|
|-111111111/12-12-12-12-12\5--5--5--5--5/7--7--7--7--7-7-|
|-x-x-x-x-x-x--x--x--x--x--x--x--x--x--x-x--x--x--x--x-x-|
|-9-9-9-9-9/10-10-10-10-10\3--3--3--3--3/5--5--5--5--5-5-|
|--------------------------------------------------------|
|--------------------------------------------------------|

Outro is the Chorus

End on

|---|
|---|
|---|
|---|
|-2-|
|-0-|

----------------------------------

Band:Taproot
Song:Sumtimes
Album:Welcome
Tuning:ADGCEA

Intro 1 (distortion, play it lightly)(to not in original verison)
---xxxx-   |---xxxx-----|
---xxxx-   |---xxxx-6v--|
---xxxx-X7 |---xxxx-5v--|
-4-xx22-   |-4-xx22-----|
-4-xx22-   |-4-xx22-----|
-2-xx00-   |-2-xx00-----|

Intro 2 (heavy dist.)
---xxxx---xxxx---xxxx---xxxx--|
---xxxx---xxxx-6-xxxx---xxxx--|
---xxxx---xxxx-5-xxxx---xxxx--|
-4-xx22-4-xx22---xx22-4-xx22--|
-4-xx22-4-xx22---xx22-4-xx22--|
-2-xx00-2-xx00---xx00-2-xx00--|

Verse (clean)
-x-xxx-x-xxx-x-xxx--x--x-x-x--|
-x-xxx-x-xxx-x-xxx-10-101010--|
-9-999-9-999-9-999--9--9-9-9--|
-7-777-7-777-7-777--7--7-7-7--|
-0-000-0-000-0-000--0--0-0-0--|
-x-xxx-x-xxx-x-xxx--x--x-x-x--|

-x-xxx-x-xxx-x-xxx-x-xxx--|
-x-xxx-x-xxx-7-777-9-999--|
-9-999-9-999-8-888-8-888--|
-7-777-7-777-8-888-8-888--|
-0-000-0-000-x-xxx-x-xxx--|
-x-xxx-x-xxx-x-xxx-x-xxx--|
-repeat the first line then play:
-x-xxx-x-xxx----------------------------------|
-x-xxx-x-xxx----------------------------------|
-9-999-9-999-11/12-1212-12-12-12h14-14141414--|
-7-777-7-777--0-----0-0--0--0--0-----0-0-0-0--|
-0-000-0-000----------------------------------|
-x-xxx-x-xxx----------------------------------|

Pre-Chorus(heavy dist.)
---------   |------|
---------   |------|
---------X2 |------|
-14~-16~-   |-2-2--|
-12~-14~-   |-2-2--|
--0~--0~-   |-0-0--|
              . .
Chorus
---------------------   |------------------------------------------------|
-----9-8-------------   |-----9-8--------------111111111111111111111111--|
-----8-7-7-777-7-777-X3 |-----8-7-777777777777-101010101010101010101010--|
-9-9-7-5-7-777-7-777-   |-9-9-6-5-555555555555--8-8-8-8-8-8-8-8-8-8-8-8--|
-9-9-6-5-5-555-5-555-   |-9-9-6-5-555555555555--8-8-8-8-8-8-8-8-8-8-8-8--|
-7-7-----------------   |-7-7--------------------------------------------|
-play Intro 2
-play verse
-play pre-chorus

Extended Chorus
---------------------   |------------------------------------------------|
-----9-8-------------   |-----9-8--------------111111111111111111111111--|
-----8-7-7-777-7-777-X3 |-----8-7-777777777777-101010101010101010101010--|
-9-9-7-5-7-777-7-777-   |-9-9-6-5-555555555555--8-8-8-8-8-8-8-8-8-8-8-8--|
-9-9-6-5-5-555-5-555-   |-9-9-6-5-555555555555--8-8-8-8-8-8-8-8-8-8-8-8--|
-7-7-----------------   |-7-7--------------------------------------------|
Quick fill between chorus riffs:
---------------------------|
-121212121212121212121212--|
-111111111111111111111111--|
--9-9-9-9-9-9-9-9-9-9-9-9--|
--9-9-9-9-9-9-9-9-9-9-9-9--|
---------------------------|

---------------------   |------------------------------------|
-----9-8-------------   |-----9-8-101010101010101010101010---|
-----8-7-7-777-7-777-X3 |-----8-7--9-9-9-9-9-9-9-9-9-9-9-9---|
-9-9-7-5-7-777-7-777-   |-9-9-6-5--7-7-7-7-7-7-7-7-7-7-7-7---|
-9-9-6-5-5-555-5-555-   |-9-9-6-5--7-7-7-7-7-7-7-7-7-7-7-7---|
-7-7-----------------   |-7-7--------------------------------|
continued...
---------------------------------------------------------------------|
-121212121212121212121212--999999999999-131313131313131313131313-----|
-111111111111111111111111--777777777777-121212121212121212121212-7~--|
--9-9-9-9-9-9-9-9-9-9-9-9--555555555555-101010101010101010101010-5~--|
--9-9-9-9-9-9-9-9-9-9-9-9--555555555555-101010101010101010101010-5~--|
---------------------------------------------------------------------|

------------------------------------------

Band;Taproot
Song:Breathe
Album:Welcome
Tunbing:Drop B

Intro:
|----------------------------------|
|-----9-9-9-9-10-10-10-10----------|
|-----9-9-9-9-9--9--9--9-----------|
|----------------------------------|
|----------------------------------|
|----------------------------------|

Verse:
|--------------------------------------------------------|
|---------------------------11-11-9----------------------|
|---2--------------------2-------------------------------|
|---2-----5-----8--------2---------------5---------------|
|---0---5-----8----------0-------------5---5-------------|
|-----5-----8-----5------------------5-------5-----------|

Chorus:
|---------------------------------------------------------------------|
|---------------------------------------------------------------------|
|----------12/13\12---------------------7-7/12------------7-7/12------|
|---7-7-7------------8-8-8--8--10-10-10---------10-10-10--------------|
|---7-7-7--10/11\10--8-8-8--8--10-10-10-5-5/10--10-10-10--5-5/10------|
|---7-7-7------------8-8-8--8--10-10-10---------10-10-10--------------|

Bridge:
|----------------------------------------------------|
|----------------------------------------------------|
|---2-2-2-2-2-2-2-2--5-5-5-5-------------------------|
|---2-2-2-2-2-2-2-2--5-5-5-5--5-5-5-5----------------|
|---0-0-0-0-0-0-0-0--3-3-3-3--5-5-5-5----------------|
|-----------------------------5-5-5-5----------------|

Last chorus:  3x-chorus riff , and then:
|---------------------------------------------------------|
|---------------------------------------------------------|
|----------12/13\12---------------------------------------|
|---7-7-7------------8-8-8--8--10-10-10--10-10-10---------|
|---7-7-7--10/11\10--8-8-8--8--10-10-10--10-10-10---------|
|---7-7-7------------8-8-8--8--10-10-10--10-10-10---------|

End on:
|------------------|
|------------------|
|---2--------------|
|---2---let ring---|
|---0--------------|
|------------------|

----------------------------------------

Band:Taproot
Song:Like
Album:Welcome
Tuning:ADGCEA

Intro/ Verse

|-----------3------------------------3----------|
|------1-------1----1----------1--------1-----1-|
|-0---------------------0----0------------------|
|-2/3-----3-------3-----3\2-------2--------2----|
|-----------------------------------------------|
|-----------------------------------------------|
1.You    look  like  me   I'm sorry  for  you
  You    talk  like  me   I can't understand you
  You    think like  me   You're ***ing crazy
  You    want  to be me   But that's okay because

2.You    act   like  me   You're embarrassing
  You    talk  like  me   You   don't    listen
  You    think like  me   You're  so ***  crazy
  You    want  to be me   But that's okay because

Prechorus

|--0--0--0--0--0--0--0--0--3--3--3--3--3--3--3--3-|
|--3--3--3--3--3--3--3--3--1--1--1--1--1--1--1--1-|
|--2--2--2--2--2--2--2--2--2--2--2--2--2--2--2--2-|
|--0--0--0--0--0--0--0--0--3--3--3--3--3--3--3--3-|
|-(0)(0)(0)(0)(0)(0)(0)(0)------------------------|
|-------------------------------------------------|
   You  remind  me    of     me            softly
   But  only   the  good   Cause I'm just the mean

Chorus
                                                                      2nd time
|-----------0-0-0-0-----------0-0-0-0-----------------0-0-0-0-0-0-0-|-0~-|
|-----------3-3-3-3-----------3-3-3-3-----------------0-0-0-0-0-0-0-|-0~-|
|-----------2-2-2-2-----------2-2-2-2--0-0-0-0-0-0-0--2-2-2-2-2-2-2-|-2~-|
|-----------0-0-0-0-----------0-0-0-0--2-2-2-2-2-2-2--2-2-2-2-2-2-2-|-2~-|
|-/9---9-9----------/9---9-9-----------3-3-3-3-3-3-3--0-0-0-0-0-0-0-|-0~-|
|--0---0-0-----------0---0-0----------------------------------------|----|
          Hanging  by a    thread for your honor Just helps me to see
                                                   inside myself

Bridge

|-0~---------------------------------------------------------|
|-0~--15-15-15-15\14-14-14\12-12-12\10-10-10-----------------|
|-2~--0--0--0--0--0--0--0--0--0--0--0--0--0--0-0-0-0-0-0-0-0-|
|-2~-----------------------------------------2-2-2-2-2-2-2-2-|
|-0~-----------------------------------------3-3-3-3-3-3-3-3-|
|------------------------------------------------------------|
                     When these             memories  become
   liquid     dreams       Just like fantasies and like fallen
   leaves        I       guess           All I need is to find
   my             desires             and set out to acquire them

-------------------------------------------

Band:Taproot
Song:Dreams
Album:Welcome
Tuning:Drop D

E---------------------------------------------------------------------------|
B---------------------------------------------------------------------------|
D---------------------------------------------------------------------------|
G---------------------------------------------------------------------------|
A---0-0-0-0-0-0-0-0-4-4-4-4-4-4-4-4-3-3-3-3-3-3-3-3-3-3-3-3-3-3-3-3-3-3-3-3-|
D---0-0-0-0-0-0-0-0-4-4-4-4-4-4-4-4-3-3-3-3-3-3-3-3-3-3-3-3-3-3-3-3-3-3-3-3-|


Verse 2    X4

E -----------------------|
B------------------------|
D------------------------|
G------------------------|
A---3---3---3---2--------|
D---3---3---3---2--------|
pm{----------------------|

X4
E----------------------------------------------------|
B----------------------------------------------------|
D-----------------------1---------1--------1--2--2---|
G---3-3-3-2------------------------------------------|
A----------------------------------------------------|
D------------------0---------0---------0-------------|

Chorus

this is the part where the pause happens and then you hear the guitars doin a funky rythem.
Follow this tap to that part and you should figure the rest out by yourself

E
B
D
G
A
D   2  1  0

------------------------------------

Band:Taproot
Song:Time
Album:Welcome
Tuning:Drop B

Intro:
|---------------------------------------------------------------|
|---------------------------------------------------------------|
|---------------------------------------------------------------|
|------------------------------6-6------------------------------|
|---------------------------------------------------------------|
|--5-5-7-7-5-5-7-7-5-5-7-7-5-5----------------------------------|

Intro 2:
|---------------------------------------------------------------|
|---------------------------------------------------------------|
|---------------------------------------------------------------|
|--5-5-8-8-8--5-5-8---------------------------------------------|
|--5-5-5-5-5--5-5-5---------------------------------------------|
|--5-5-5-5-5--5-5-5---------------------------------------------|

Verse:
|---------------------------------------------------------------|
|---------------------------------------------------------------|
|---------------------------------------------------------------|
|--5-5-8-8-8--5-5-8------5-5-8-8-8--5-5-------------------------|
|--5-5-5-5-5--5-5-5-(3x)-5-5-5-5-5--5-5-------------------------|
|--5-5-5-5-5--5-5-5------5-5-5-5-5--5-5-------------------------|

Chorus:
|---------------------------------------------------------------|
|---------------------------------------------------------------|
|------------------7-7-7-8-8------------------------------------|
|--3/888-5-5-3/888-7-7-7-8-8-3/888-5-5-3/888-8-8-8-8------------|
|--3/888-5-5-3/888-5-5-5-6-6-3/888-5-5-3/888-8-8-8-8------------|
|--3/888-5-5-3/888-----------3/888-5-5-3/888-8-8-8-8------------|

End of chorus 2:
|---------------------------------------------------------------|
|---------------------------------------------------------------|
|---------------------------------------------------------------|
|--3--8--5------------------------------------------------------|
|--3--8--5-let-ring---------------------------------------------|
|--3--8--5------------------------------------------------------|

Bridge:
|---------------------------------------------------------------|
|---------------------------------------------------------------|
|---------------------------------------------------------------|
|---------------------------------------------------------------|
|----------------------4*4*4*-----------------------------------|
|--65565565000-65565565-------65565565000-655655650-0-0---------|

Bridge 2:
|---------------------------------------------------------------|
|---------------------------------------------------------------|
|---------------------------------------------------------------|
|--------------------------------------666-66-666-66-666-66-----|
|--------------------------------------666-66-666-66-666-66-----|
|--65565565-65565565-65565565-65565565--------------------------|

End:
|---------------------------------------------------------------|
|---------------------------------------------------------------|
|---------------------------------------------------------------|
|---------------------------------------------------------------|
|---------------------------------------------------------------|
|--655665-655665-655665-(pause)-655665--------------------------|
Comments