Taproot - Sumtimes Chords & Tabs

 

Sumtimes Chords & Tabs

Taproot Chords & Tabs

Version: 1 Type: Tab 0 ratings
1 star 2 stars 3 stars 4 stars 5 stars
comments

Sumtimes Tab

No one seems to wanna touch this tab, so I went for it. This is the version from the
Music As A Weapon tour, and I watched the DVD far too many times to get this. It's a bit
long, but I tried to shorten it as much as possible and still make sense, they tend to
like to alter their riffs. I know it's 2 guitars, but I tabbed it for one. I think it's
pretty accurate, but not 100%. If you got a prob with it, then tab it yourself. =^.^=
Sumtimes from Taproot
Tuning :ADGBEA

Intro 1 (distortion, play it lightly)(to not in original verison)
---xxxx-   |---xxxx-----|
---xxxx-   |---xxxx-6v--|
---xxxx-X7 |---xxxx-5v--|
-4-xx22-   |-4-xx22-----|
-4-xx22-   |-4-xx22-----|
-2-xx00-   |-2-xx00-----|

Intro 2 (heavy dist.)
---xxxx---xxxx---xxxx---xxxx--|
---xxxx---xxxx-6-xxxx---xxxx--|
---xxxx---xxxx-5-xxxx---xxxx--|
-4-xx22-4-xx22---xx22-4-xx22--|
-4-xx22-4-xx22---xx22-4-xx22--|
-2-xx00-2-xx00---xx00-2-xx00--|

Verse (clean)
-x-xxx-x-xxx-x-xxx--x--x-x-x--|
-x-xxx-x-xxx-x-xxx-10-101010--|
-9-999-9-999-9-999--9--9-9-9--|
-7-777-7-777-7-777--7--7-7-7--|
-0-000-0-000-0-000--0--0-0-0--|
-x-xxx-x-xxx-x-xxx--x--x-x-x--|

-x-xxx-x-xxx-x-xxx-x-xxx--|
-x-xxx-x-xxx-7-777-9-999--|
-9-999-9-999-8-888-8-888--|
-7-777-7-777-8-888-8-888--|
-0-000-0-000-x-xxx-x-xxx--|
-x-xxx-x-xxx-x-xxx-x-xxx--|
-repeat the first line then play:
-x-xxx-x-xxx----------------------------------|
-x-xxx-x-xxx----------------------------------|
-9-999-9-999-11/12-1212-12-12-12h14-14141414--|
-7-777-7-777--0-----0-0--0--0--0-----0-0-0-0--|
-0-000-0-000----------------------------------|
-x-xxx-x-xxx----------------------------------|
[ Tab from: http://www.guitartabs.cc/tabs/t/taproot/sumtimes_tab.html ]
Pre-Chorus(heavy dist.)
---------   |------|
---------   |------|
---------X2 |------|
-14~-16~-   |-2-2--|
-12~-14~-   |-2-2--|
--0~--0~-   |-0-0--|
              . .
Chorus
---------------------   |------------------------------------------------|
-----9-8-------------   |-----9-8--------------111111111111111111111111--|
-----8-7-7-777-7-777-X3 |-----8-7-777777777777-101010101010101010101010--|
-9-9-7-5-7-777-7-777-   |-9-9-6-5-555555555555--8-8-8-8-8-8-8-8-8-8-8-8--|
-9-9-6-5-5-555-5-555-   |-9-9-6-5-555555555555--8-8-8-8-8-8-8-8-8-8-8-8--|
-7-7-----------------   |-7-7--------------------------------------------|
-play Intro 2
-play verse
-play pre-chorus

Extended Chorus
---------------------   |------------------------------------------------|
-----9-8-------------   |-----9-8--------------111111111111111111111111--|
-----8-7-7-777-7-777-X3 |-----8-7-777777777777-101010101010101010101010--|
-9-9-7-5-7-777-7-777-   |-9-9-6-5-555555555555--8-8-8-8-8-8-8-8-8-8-8-8--|
-9-9-6-5-5-555-5-555-   |-9-9-6-5-555555555555--8-8-8-8-8-8-8-8-8-8-8-8--|
-7-7-----------------   |-7-7--------------------------------------------|
Quick fill between chorus riffs:
---------------------------|
-121212121212121212121212--|
-111111111111111111111111--|
--9-9-9-9-9-9-9-9-9-9-9-9--|
--9-9-9-9-9-9-9-9-9-9-9-9--|
---------------------------|

---------------------   |------------------------------------|
-----9-8-------------   |-----9-8-101010101010101010101010---|
-----8-7-7-777-7-777-X3 |-----8-7--9-9-9-9-9-9-9-9-9-9-9-9---|
-9-9-7-5-7-777-7-777-   |-9-9-6-5--7-7-7-7-7-7-7-7-7-7-7-7---|
-9-9-6-5-5-555-5-555-   |-9-9-6-5--7-7-7-7-7-7-7-7-7-7-7-7---|
-7-7-----------------   |-7-7--------------------------------|
continued...
---------------------------------------------------------------------|
-121212121212121212121212--999999999999-131313131313131313131313-----|
-111111111111111111111111--777777777777-121212121212121212121212-7~--|
--9-9-9-9-9-9-9-9-9-9-9-9--555555555555-101010101010101010101010-5~--|
--9-9-9-9-9-9-9-9-9-9-9-9--555555555555-101010101010101010101010-5~--|
---------------------------------------------------------------------|
-play intro 1 (clean)
-play intro 2
-play verse with last half of end bar distorted
-play pre-chorus
-play extended chorus
-play intro 1 (clean)
Comments