Taproot - Poems Chords & Tabs

 

Poems Chords & Tabs

Taproot Chords & Tabs

Version: 1 Type: Tab 0 ratings
1 star 2 stars 3 stars 4 stars 5 stars
comments

Poems Tab

|----------------------------------------------
|----------------------------------------------
|--4--4------------------7--7------------------
|--4--4----5--5--5--5----7--7----7--7--7--7----
|--2--2----5--5--5--5----5--5----7--7--7--7----
|----------3--3--3--3------------5--5--5--5----

|----------------------------------------------
|----------------------------------------------
|--------------5-------------------------------
|---5/7---5/7--5-------------------------------
|---5/7---5/7--3-------------------------------
|---3/5---3/5----------------------------------

[ Tab from: http://www.guitartabs.cc/tabs/t/taproot/poems_tab.html ]
Comments