Taproot - Poem Chords & Tabs

 

Poem Chords & Tabs

Taproot Chords & Tabs

Version: 6 Type: Tab 0 ratings
1 star 2 stars 3 stars 4 stars 5 stars
comments

Poem Tab

   
TAPROOT
Poem
from the album ‘Welcome’

Tuning (low to high): A-E-A-D-G-B

Intro: (half distortion/half clean-type sound)
[--------------------------------
[--------------------------------
[9-----9-X---5-----5-5---5---5---
[9-----9-X---5-----5-5---5---5---
[7-----7-X---3-----3-3---3---3---
[--------------------------------

[--------------------------------
[7-----7-X-----------------------
[7-----7-X---7-----7-7---7---7---
[5-----5-X---7-----7-7---7---7---
[------------5-----5-5---5---5---
[--------------------------------

[--------------------------------
[--------------------------------
[9-----9-X---5-----5-5---5---5---
[9-----9-X---5-----5-5---5---5---
[7-----7-X---3-----3-3---3---3---
[--------------------------------

enter distortion
[--------------------------------
[--------------------------------
[5/7-7-7-X-X-5/7-7-7-X-X-8-8-----
[X-X-X-X-X-X-X-X-X-X-X-X-X-X-----
[3/5-5-5-X-X-3/5-5-5-X-X-6-6-----
[--------------------------------

[--------------------------------
[--------------------------------
[--------------------------------
[0-2-2-2-X-X-0-2-2-2-X-X-3-3-X-X-  play 4X
[0-2-2-2-X-X-0-2-2-2-X-X-3-3-X-X-
[0-2-2-2-X-X-0-2-2-2-X-X-3-3-X-X-

[--------------------------------
[--------------------------------
[5/7-7-7-X-X-5/7-7-7-X-X-10-10---
[X-X-X-X-X-X-X-X-X-X-X-X--X--X---
[3/5-5-5-X-X-3/5-5-5-X-X--8--8---
[--------------------------------

Verse: (half distortion/half clean-type sound)
[---------------------------------
[---------------------------------
[7/9-9-9-----7/9-9-9----10-10-----
[7/9-9-9-----7/9-9-9----10-10-----  play 4X
[5/7-7-7-----5/7-7-7-----8--8-----
[---------------------------------

Pre-chorus (distortion):
[--------------------------------
[--------------------------------
[--------------------------------
[0-2-2-2-X-X-0-2-2-2-X-X-3-3-X-X-  play 4X
[0-2-2-2-X-X-0-2-2-2-X-X-3-3-X-X-
[0-2-2-2-X-X-0-2-2-2-X-X-3-3-X-X-
[ Tab from: http://www.guitartabs.cc/tabs/t/taproot/poem_tab_ver_6.html ]
Chorus (distortion):
[--------------------------------
[--------------------------------
[9-----9-X---5-----5-5---5---5---
[9-----9-X---5-----5-5---5---5---
[7-----7-X---3-----3-3---3---3---
[--------------------------------\
                                  \
[--------------------------------  \
[7-----7-X-----------------------   \
[7-----7-X---7-----7-7---7---7---    |
[5-----5-X---7-----7-7---7---7---    |
[------------5-----5-5---5---5---    |
[--------------------------------    |
                                     |
[--------------------------------  play 2X
[--------------------------------    |
[9-----9-X---5-----5-5---5---5---    |
[9-----9-X---5-----5-5---5---5---    |
[7-----7-X---3-----3-3---3---3---   /
[--------------------------------  /
                                  /
[--------------------------------/
[--------------------------------
[5/7-7-7-X-X-5/7-7-7-X-X-8-8-----
[X-X-X-X-X-X-X-X-X-X-X-X-X-X-----
[3/5-5-5-X-X-3/5-5-5-X-X-6-6-----
[--------------------------------

Post-chorus (distortion):
[--------------------------------
[--------------------------------
[5/7-7-7-X-X-5/7-7-7-X-X-10-10---
[X-X-X-X-X-X-X-X-X-X-X-X--X--X---
[3/5-5-5-X-X-3/5-5-5-X-X--8--8---
[--------------------------------

verse

pre-chorus

chorus 2X

then add this
[--------------------------------
[--------------------------------
[5/7-7-7-X-X-5/7-7-7-X-X-8-8-----
[X-X-X-X-X-X-X-X-X-X-X-X-X-X-----  2X times
[3/5-5-5-X-X-3/5-5-5-X-X-6-6-----
[--------------------------------

Bridge (distortion):
[------------------------
[------------------------
[------------------------
[0-2-2-2-----------------  3X
[0-2-2-2-----------------
[0-2-2-2-----------------

[--------------------------------
[--------------------------------
[--------------------------------
[0-2-2-2-X-X-0-2-2-2-X-X-3-3-X-X-  play 6X
[0-2-2-2-X-X-0-2-2-2-X-X-3-3-X-X-
[0-2-2-2-X-X-0-2-2-2-X-X-3-3-X-X-

[------------------------
[------------------------
[------------------------
[0-2-2-2-----------------  3X
[0-2-2-2-----------------
[0-2-2-2-----------------

[----------------
[----------------
[----------------
[2-2-2-2---------
[2-2-2-2---------
[2-2-2-2---------

chorus  (first five bars half distortion/half clean-type sound, last three distortion)

chorus

Ending (distortion):
[--------------------------------
[--------------------------------
[5/7-7-7-X-X-5/7-7-7-X-X-8-8-----
[X-X-X-X-X-X-X-X-X-X-X-X-X-X-----  play 2X
[3/5-5-5-X-X-3/5-5-5-X-X-6-6-----
[--------------------------------

[----------------
[----------------
[----------------
[2-2-2-2---------
[2-2-2-2---------
[2-2-2-2---------

~35 Lives
zegro422sowl@yahoo.com
Comments