Taproot - Poem Chords & Tabs

 

Poem Chords & Tabs

Taproot Chords & Tabs

Version: 3 Type: Tab 1 rating
1 star 2 stars 3 stars 4 stars 5 stars
comments

Poem Tab

Title- Poem
Artist- Taproot
Tuning- Standard (eadgbe)

 I've seen a bunch of tabs to this song and thier wrong, 
this is the rite virsion
[ Tab from: http://www.guitartabs.cc/tabs/t/taproot/poem_tab_ver_3.html ]
Intro:
e------------------------------------------------------------
b------------------------------------------------------------
g------------------------------------------------------------
d----44----------66-----------44-----------------------------
a----22----44----44-----66----22---44--3/55-x-3/55-----------
E----------22-----------44---------22--3/55-x-3/55-----------
Where the drums and bass come in:
e-------------------------------
b-------------------------------
g-------------------------------
d-------------------------------
a-5/77--5/77--xx--5/77--5/77-xx-
E-3/55--3/55--xx--3/55--3/55-xx-

It prety much stays like that untill the chorus

Chorus:
e--------------------------------------
b--------------------------------------
g--------------------------------------
d--444------------666-----------
a--222----444-4---444--666-4-
E---------222-2--------444-6-

Ok thats about it. This is my first tab so there may be some problems,
 but i revised it and tried to make it 100% correct.
Comments