Taproot - Poem Chords & Tabs

 

Poem Chords & Tabs

Taproot Chords & Tabs

Version: 2 Type: Tab 0 ratings
1 star 2 stars 3 stars 4 stars 5 stars
comments

Poem Tab

Taproot - Poem

Standard Tuning

Intro


e|-----------------------

b|-----------------------

g|--4--4-----------------

d|--4--4-----5--5--5--5--

a|--2--2-----5--5--5--5--

e|--2--2-----3--3--3--3--



e|-----------------------

b|-----------------------

g|--7--7-----------------

d|--7--7-----7--7--7--7--

a|--5--5-----7--7--7--7--

e|--5--5-----5--5--5--5--


e|-----------------------

b|-----------------------

g|--4--4-----------------

d|--4--4-----5--5--5--5--

a|--2--2-----5--5--5--5--

e|--2--2-----3--3--3--3--


e|--------------------------------------

b|--------------------------------------

g|--------------------------------------

d|--5/7--7--7-----5/7--7--7-----10--10--

a|--------------------------------------

e|--3/5--5--5-----3/5--5--5------8---8--



e|----------------------------------------------

b|----------------------------------------------

g|-----4--4--4-x-x------4--4--4-x-x---5--5-x-x--

d|-----4--4--4-x-x------4--4--4-x-x---5--5-x-x--      (Play 4X's)

a|--0--2--2--2-x-x---0--2--2--2-x-x---3--3-x-x--

e|--0--2--2--2-x-x---0--2--2--2-x-x---3--3-x-x--



e|--------------------------------------

b|--------------------------------------

g|--------------------------------------

d|--5/7--7--7-----5/7--7--7-----10--10--

a|--------------------------------------

e|--3/5--5--5-----3/5--5--5------8---8--

            
Verse

e|--------------------------------------

b|--------------------------------------

g|--------------------------------------

d|--7/9--9--9----7/9--9--9------10--10--     (Play 4X's)

a|--------------------------------------

e|--5/7--7--7----5/7--7--7-------8---8--

[ Tab from: http://www.guitartabs.cc/tabs/t/taproot/poem_tab_ver_2.html ]
Pre Chorus


e|----------------------------------------------

b|----------------------------------------------

g|-----4--4--4-x-x------4--4--4-x-x---5--5-x-x--

d|-----4--4--4-x-x------4--4--4-x-x---5--5-x-x--      (Play 4X's)

a|--0--2--2--2-x-x---0--2--2--2-x-x---3--3-x-x--

e|--0--2--2--2-x-x---0--2--2--2-x-x---3--3-x-x--


Chorus  (Play 2X's)

e|-----------------------        

b|-----------------------          

g|--4--4-----------------            

d|--4--4-----5--5--5--5--       (Play 2X's)

a|--2--2-----5--5--5--5--

e|--2--2-----3--3--3--3--                  



e|-----------------------                      

b|-----------------------

g|--7--7-----------------

d|--7--7-----7--7--7--7--

a|--5--5-----7--7--7--7--

e|--5--5-----5--5--5--5--
                  

e|-----------------------

b|-----------------------

g|--4--4-----------------

d|--4--4-----5--5--5--5--

a|--2--2-----5--5--5--5--

e|--2--2-----3--3--3--3--


e|-------------------------------------                ---------

b|-------------------------------------                ---------

g|-------------------------------------                ---------

d|--5/7--7--7-----5/7--7--7------9--9--                -10--10--

a|-------------------------------------    2nd time--> ---------

e|--3/5--5--5-----3/5--5--5------6--6--                --8---8--


*Verse

*Chorus    (Play 4X's)


*Break

e|----------------------

b|----------------------

g|---4--4-----4------4--

d|---4--4-----4------4--

a|---2--2-----2------2--

e|---2--2-----2------2--


*Pre Chorus     (Play 4X's)

*Break


Repeat chorus 4X's until end.


Big Al's Tabs!!!!!!!!!!!!!!!!!!!!!!!!!!!!!!!!!!!!
Comments