Taproot - Poem Chords & Tabs

 

Poem Chords & Tabs

Taproot Chords & Tabs

Version: 19 Type: Tab 0 ratings
1 star 2 stars 3 stars 4 stars 5 stars
comments

Poem Tab

   
Poem-Taproot
Welcome

Tuning:
A D G C E A

Intro:

a-----------------------------------------------------------------
e-7----7-------------------------10---10--------------------------
c-6----6-x-x--7----7-7---7---x-x--9----9-x-x--9----9-9---9---x-x--
g-4----4-x-x--7----7-7---7---x-x--7----7-x-x--9----9-9---9---x-x--
d-4----4-x-x--5----5-5---5---x-x--7----7-x-x--7----7-7---7---x-x--
a-----------------------------------------------------------------

a-----------------------------------------------------------------
e-7----7----------------------------------------------------------
c-6----6-x-x--7----7-7---7---x-x-7/9-9-9-x-x-7/9-9-9-x-x-12-12----
g-4----4-x-x--7----7-7---7---x-x-x-x-x-x-x-x-x-x-x-x-x-x--x--x----
d-4----4-x-x--5----5-5---5---x-x-5/7-7-7-x-x-5/7-7-7-x-x-10-10----
a-----------------------------------------------------------------

x2
a-----------------------------------------------------------------
e-----------------------------------------------------------------
c-----------------------------------------------------------------
g-4---4-4-x-x-4---4-4-x-x-x-5-----4---4-4-x-x-4---4-4-x-x-x-5-----
d-4---4-4-x-x-4---4-4-x-x-x-5-----4---4-4-x-x-4---4-4-x-x-x-5-----
a-0h2-2-2-x-x-0h2-2-2-x-x-x-3-----0h2-2-2-x-x-0h2-2-2-x-x-x-3-----

fill
a----------------------------------
e----------------------------------
c-7/9-9-9-x-x-7/9-9-9-x-x-x-12-----
g-x-x-x-x-x-x-x-x-x-x-x-x-x--x-----
d-5/7-7-7-x-x-5/7-7-7-x-x-x-10-----
a----------------------------------

Verses: x4

a-----------------------------------------------------------------
e-----------------------------------------------------------------
c-9111111-x-x-9111111-x-x-x-12----9111111-x-x-9111111-x-x-x-12----
g-x-x-x-x-x-x-x-x-x-x-x-x-x--x----x-x-x-x-x-x-x-x-x-x-x-x-x--x----
d-7/9-9-9-x-x-7/9-9-9-x-x-x-10----7/9-9-9-x-x-7/9-9-9-x-x-x-10----
a-----------------------------------------------------------------

then,

a-----------------------------------------------------------------
e-----------------------------------------------------------------
c-----------------------------------------------------------------
g-4---4-4-x-x-4---4-4-x-x-x-5-----4---4-4-x-x-4---4-4-x-x-x-5-----
d-4---4-4-x-x-4---4-4-x-x-x-5-----4---4-4-x-x-4---4-4-x-x-x-5-----
a-0h2-2-2-x-x-0h2-2-2-x-x-x-3-----0h2-2-2-x-x-0h2-2-2-x-x-x-3-----

a-----------------------------------------------------------------
e-----------------------------------------------------------------
c-----------------------------------------------------------------
g-4---4-4-x-x-4---4-4-x-x-x-5-----4---4-4-x-x-4---4-4-x-x-x-5-----
d-4---4-4-x-x-4---4-4-x-x-x-5-----4---4-4-x-x-4---4-4-x-x-x-5-----
a-0h2-2-2-x-x-0h2-2-2-x-x-x-3-----0h2-2-2-x-x-0h2-2-2-x-x-x-3---0-

Chorus: x2

a-----------------------------------------------------------------
e-7----7-------------------------10---10--------------------------
c-6----6---x--7----7-7---7---x-x--9----9-x-x--9----9-9---9---x-x--
g-4----4---x--7----7-7---7---x-x--7----7-x-x--9----9-9---9---x-x--
d-4----4-x-x--5----5-5---5---x-x--7----7-x-x--7----7-7---7---x-x--
a--------0--------------------------------------------------------

a-----------------------------------------------------------------
e-7----7----------------------------------------------------------
c-6----6-x-x--7----7-7---7---x-x-7/9-9-9-x-x-7/9-9-9-x-x-10-10----
g-4----4-x-x--7----7-7---7---x-x-x-x-x-x-x-x-x-x-x-x-x-x--x--x--x-
d-4----4-x-x--5----5-5---5---x-x-5/7-7-7-x-x-5/7-7-7-x-x--8--8--x-
a-----------------------------------------------------------------

then,

a----------------------------------
e----------------------------------
c-7/9-9-9-x-x-7/9-9-9-x-x-x-12-----
g-x-x-x-x-x-x-x-x-x-x-x-x-x--x-----
d-5/7-7-7-x-x-5/7-7-7-x-x-x-10-----
a----------------------------------

Chorus 2:

gtr. 1

a-----------------------------------------------------------------
e-7----7-------------------------10---10--------------------------
c-6----6---x--7----7-7---7---x-x--9----9-x-x--9----9-9---9---x-x--
g-4----4---x--7----7-7---7---x-x--7----7-x-x--9----9-9---9---x-x--
d-4----4-x-x--5----5-5---5---x-x--7----7-x-x--7----7-7---7---x-x--
a--------0--------------------------------------------------------

gtr. 2

a-----------------------------------------------------------------
e-----------------------------------------------------------------
c-18-------------------------18\14-14-----------------------16\13-
g--x--------------------------x--x--x------------------------x--x-
d-16-------------------------16\12-12-----------------------14\11-
a-----------------------------------------------------------------

gtr. 1
[ Tab from: http://www.guitartabs.cc/tabs/t/taproot/poem_tab_ver_19.html ]
a-----------------------------------------------------------------
e-7----7----------------------------------------------------------
c-6----6-x-x--7----7-7---7---x-x-7/9-9-9-x-x-7/9-9-9-x-x-10-10----
g-4----4-x-x--7----7-7---7---x-x-x-x-x-x-x-x-x-x-x-x-x-x--x--x--x-
d-4----4-x-x--5----5-5---5---x-x-5/7-7-7-x-x-5/7-7-7-x-x--8--8--x-
a-----------------------------------------------------------------

gtr. 2

a-----------------------------------------------------------------
e-----------------------------------------------------------------
c-13---------14--------16-----------------------------------------
g--x----------x---------x-----------------------------------------
d-11---------12--------14-----------------------------------------
a-----------------------------------------------------------------

gtr. 1

a-----------------------------------------------------------------
e-7----7-------------------------10---10--------------------------
c-6----6---x--7----7-7---7---x-x--9----9-x-x--9----9-9---9---x-x--
g-4----4---x--7----7-7---7---x-x--7----7-x-x--9----9-9---9---x-x--
d-4----4-x-x--5----5-5---5---x-x--7----7-x-x--7----7-7---7---x-x--
a--------0--------------------------------------------------------

gtr. 2

a-----------------------------------------------------------------
e-----------------------------------------------------------------
c-18-------------------------18\14-14-----------------------13----
g--x--------------------------x--x--x------------------------x----
d-16-------------------------16\12-12-----------------------11----
a-----------------------------------------------------------------

gtr. 1

a-----------------------------------------------------------------
e-7----7----------------------------------------------------------
c-6----6-x-x--7----7-7---7---x-x-7/9-9-9-x-x-7/9-9-9-x-x-10-10----
g-4----4-x-x--7----7-7---7---x-x-x-x-x-x-x-x-x-x-x-x-x-x--x--x--x-
d-4----4-x-x--5----5-5---5---x-x-5/7-7-7-x-x-5/7-7-7-x-x--8--8--x-
a-----------------------------------------------------------------

gtr. 2

a-----------------------------------------------------------------
e-----------------------------------------------------------------
c-13---------14--------16-----------------------------------------
g--x----------x---------x-----------------------------------------
d-11---------12--------14-----------------------------------------
a-----------------------------------------------------------------

then,

a----------------------------------
e----------------------------------
c-7/9-9-9-x-x-7/9-9-9-x-x-x-12-----
g-x-x-x-x-x-x-x-x-x-x-x-x-x--x-----
d-5/7-7-7-x-x-5/7-7-7-x-x-x-10-----
a----------------------------------

Interlude:

a-----------------------------------------------------------------
e-----------------------------------------------------------------
c-----------------------------------------------------------------
g-4---4-4------------4---4-4------------4---4-4-------------------
d-4---4-4------------4---4-4------------4---4-4-------------------
a-0h2-2-2------------0h2-2-2------------0h2-2-2-------------------

x3
a-----------------------------------------------------------------
e-----------------------------------------------------------------
c-----------------------------------------------------------------
g-4---4-4-x-x-4---4-4-x-x-x-5-----4---4-4-x-x-4---4-4-x-x-x-5-----
d-4---4-4-x-x-4---4-4-x-x-x-5-----4---4-4-x-x-4---4-4-x-x-x-5-----
a-0h2-2-2-x-x-0h2-2-2-x-x-x-3-----0h2-2-2-x-x-0h2-2-2-x-x-x-3-----

then, 

a-----------------------------------------------------------------
e-----------------------------------------------------------------
c-----------------------------------------------------------------
g-4---4-4------------4---4-4------------4---4-4---------4---4-4---
d-4---4-4------------4---4-4------------4---4-4---------4---4-4---
a-0h2-2-2------------0h2-2-2------------0h2-2-2---------0h2-2-2---

Chorus:

a-----------------------------------------------------------------
e-7----7-------------------------10---10--------------------------
c-6----6---x--7----7-7---7---x-x--9----9-x-x--9----9-9---9---x-x--
g-4----4---x--7----7-7---7---x-x--7----7-x-x--9----9-9---9---x-x--
d-4----4-x-x--5----5-5---5---x-x--7----7-x-x--7----7-7---7---x-x--
a--------0--------------------------------------------------------

a-----------------------------------------------------------------
e-7----7----------------------------------------------------------
c-6----6-x-x--7----7-7---7---x-x-7/9-9-9-x-x-7/9-9-9-x-x-10-10----
g-4----4-x-x--7----7-7---7---x-x-x-x-x-x-x-x-x-x-x-x-x-x--x--x--x-
d-4----4-x-x--5----5-5---5---x-x-5/7-7-7-x-x-5/7-7-7-x-x--8--8--x-
a-----------------------------------------------------------------

Outro:

x2
a-------------------------------------
e-------------------------------------
c-7/9-9-9-x-x-7/9-9-9-x-x-x-10-10-----
g-x-x-x-x-x-x-x-x-x-x-x-x-x--x--x-----
d-5/7-7-7-x-x-5/7-7-7-x-x-x--8--8---x-
a-------------------------------------

a-------------------------------------
e-------------------------------------
c-------------------------------------
g-4-4-4-4\----------------------------
d-4-4-4-4\----------------------------
a-2-2-2-2\----------------------------

thatís all
*from gtr. world*

trevor jones
timmy91199@yahoo.ca
Comments