Taproot - Poem Chords & Tabs

 

Poem Chords & Tabs

Taproot Chords & Tabs

Version: 14 Type: Tab 0 ratings
1 star 2 stars 3 stars 4 stars 5 stars
comments

Poem Tab

   
Taproot - Welcome - Poem

Drop-D

lartones@hotmail.com

[ Tab from: http://www.guitartabs.cc/tabs/t/taproot/poem_tab_ver_14.html ]
-------------------------------
-------------------------------
--6--6-6---------9--9-9--------
--6--6-6-7--7-7--9--9-9-9--9-9-
--4--4-4-7--7-7--7--7-7-9--9-9-
---------5--5-5---------7--7-7-

------------------------------------------
------------------------------------------
--6--6-6----------------------------------
--6--6-6-7--7-7-7/9-9-9-9--7/9-9-9-9-7/10-
--4--4-4-7--7-7-7/9-9-9-9--7/9-9-9-9-7/10-
---------5--5-5-5/7-7-7-7--5/7-7-7-7-5/8--
Comments