Taproot - Poem Chords & Tabs

 

Poem Chords & Tabs

Taproot Chords & Tabs

Version: 13 Type: Tab 0 ratings
1 star 2 stars 3 stars 4 stars 5 stars
comments

Poem Tab

(clean)
e|---------------------------------------------------------------
B|---------------------------------------------------------------
G|-4-4---------7-7---------4-4-----------------------------------
D|-4-4-5-5-5-5-7-7-7-7-7-7-4-4-5-5-5-5---------------------------
A|-2-2-5-5-5-5-5-5-7-7-7-7-2-2-5-5-5-5---------------------------
E|-----3-3-3-3-----5-5-5-5-----3-3-3-3---------------------------
[ Tab from: http://www.guitartabs.cc/tabs/t/taproot/poem_tab_ver_13.html ]
(distortion)
e|---------------------------------------------------------------
B|---------------------------------------------------------------
G|---------------------------------------------------------------
D|-5/-7-7--5/-7-7-10---------------------------------------------
A|-5/-7-7--5/-7-7-10---------------------------------------------
E|-3/-5-5--3/-5-5--8---------------------------------------------
Comments