Taproot - Poem Chords & Tabs

 

Poem Chords & Tabs

Taproot Chords & Tabs

Version: 1 Type: Tab 0 ratings
1 star 2 stars 3 stars 4 stars 5 stars
comments

Poem Tab

Taproot

Poem

Tuning- dropped D


Intro Chords-CLEAN

e--------------------
b--------------------
g-9--5--12--7--7--5--
D-9--5--12--7--7--5--
A-7--3--10--5--9--3--
D--------------------

then, DISTORTED

e-------------------------------
b-------------------------------
g-5/7-7-7-x-x-5/7-7-7-x-x-x-10--
D-------------------------------
A-3/5-5-5-x-x-3/5-5-5-x-x-x-8---
D-------------------------------

then,

e------------------------------
b------------------------------
g------------------------------
D-0h2-2-2-x-x-0h2-2-2-x-x-x-3-- x4
A-0h2-2-2-x-x-0h2-2-2-x-x-x-3--
D-0h2-2-2-x-x-0h2-2-2-x-x-x-3--

then,

e-------------------------------
b-------------------------------
g-5/7-7-7-x-x-5/7-7-7-x-x-x-10--
D-------------------------------
A-3/5-5-5-x-x-3/5-5-5-x-x-x-8---
D-------------------------------

Verse-

e-------------------------------
b-------------------------------
g-7/9-9-9-x-x-7/9-9-9-x-x-x-10--
D------------------------------- x4
A-5/7-7-7-x-x-5/7-7-7-x-x-x-8---
D-------------------------------

e-------------------------------
b-------------------------------
g-------------------------------
D-0h2-2-2-x-x-0h2-2-2-x-x-x-3--- x4
A-0h2-2-2-x-x-0h2-2-2-x-x-x-3---
D-0h2-2-2-x-x-0h2-2-2-x-x-x-3---

Chorus-

e--------------------------------------------------
b--------------------------------------------------
g-9--5--12--7--9--5--5/7-7-7-x-x-5/7-7-7-x-x-x-8---
D-9--5--12--7--9--5-------------------------------- x2
A-7--3--10--5--7--3--3/5-5-5-x-x-3/5-5-5-x-x-x-6---
D--------------------------------------------------

then, 
[ Tab from: http://www.guitartabs.cc/tabs/t/taproot/poem_tab.html ]
e-------------------------------
b-------------------------------
g-5/7-7-7-x-x-5/7-7-7-x-x-x-10--
D-------------------------------
A-3/5-5-5-x-x-3/5-5-5-x-x-x-8---
D-------------------------------

Verse 2-

e-------------------------------
b-------------------------------
g-7/9-9-9-x-x-7/9-9-9-x-x-x-10--
D------------------------------- x4
A-5/7-7-7-x-x-5/7-7-7-x-x-x-8---
D-------------------------------

e------------------------------
b------------------------------
g------------------------------
D-0h2-2-2-x-x-0h2-2-2-x-x-x-3-- x4
A-0h2-2-2-x-x-0h2-2-2-x-x-x-3--
D-0h2-2-2-x-x-0h2-2-2-x-x-x-3--

Chorus-

e--------------------------------------------------
b--------------------------------------------------
g-9--5--12--7--9--5--5/7-7-7-x-x-5/7-7-7-x-x-x-8---
D-9--5--12--7--9--5-------------------------------- x4
A-7--3--10--5--7--3--3/5-5-5-x-x-3/5-5-5-x-x-x-6---
D--------------------------------------------------

then, 

e-------------------------------
b-------------------------------
g-5/7-7-7-x-x-5/7-7-7-x-x-x-8---
D-------------------------------
A-3/5-5-5-x-x-3/5-5-5-x-x-x-6---
D-------------------------------


Bridge-

e----------
b----------
g----------
D-0h2-2-2-- x3
A-0h2-2-2--
D-0h2-2-2--

e-----------------------------
b-----------------------------
g-----------------------------
D-0h2-2-2-x-x-0h2-2-2-x-x-3--- x6
A-0h2-2-2-x-x-0h2-2-2-x-x-3---
D-0h2-2-2-x-x-0h2-2-2-x-x-3---

e----------
b----------
g----------
D-0h2-2-2-- x4
A-0h2-2-2--
D-0h2-2-2--

Chorus x1 Clean

Chorus x2 DISTORTED

then, 

e-------------------------------
b-------------------------------
g-5/7-7-7-x-x-5/7-7-7-x-x-x-8---
D------------------------------- x3
A-3/5-5-5-x-x-3/5-5-5-x-x-x-6---
D-------------------------------

end with

e----------
b----------
g----------
D-0h2-2-2-- 
A-0h2-2-2--
D-0h2-2-2--




Comments