Taproot - Poem Chords & Tabs

 

Poem Chords & Tabs

Taproot Chords & Tabs

Version: 3 Type: Bass Tab 0 ratings
1 star 2 stars 3 stars 4 stars 5 stars
comments

Poem Bass Tab

INTRO (WAIT FOR GUITAR)

G-----------------------------------------------|
D-----------------------------------------------|
A---0h2-2--0h2-2--33----------------------------|
E-----------------------------------------------|

MAIN RIFF
[ Tab from: http://www.guitartabs.cc/tabs/t/taproot/poem_btab_ver_3.html ]
G----------------------------------------------------------------------|
D----------------------------------------------------------------------|
A--2-22-------5-55--------2-22-----------------------------------------|
E------3-333-------5-555-------3-333--4h6-4h6-77--8h10--8h10--11-11----|

HEAVY PART

G-----------------------------------------------|
D-----------------------------------------------|
A--000X--000X--0h1------------------------------|
E-----------------------------------------------|



that it figure out what goes where.
Comments