Taproot - Now Chords & Tabs

 

Now Chords & Tabs

Taproot Chords & Tabs

Version: 1 Type: Tab 0 ratings
1 star 2 stars 3 stars 4 stars 5 stars
comments

Now Tab

   
Song: "Now"
Artist: Taproot
Album: Gift
Transcribed By: Bryan Bramlett (bryanmb87@aol.com)

Tuning: (A,E,A,D,G,B)

VERSE: (it took a while for me to figure this out, it can be played
	  either way.  first ways the correct way, 2nds a tiny bit diff.
	  but easier)
|-------------------1-1-1---4-4-4-|
|---0---0---0---0---3---3---1---1-|
|---------------------------------|
|---------------------------------|
|-3---3---3---3---3---3---3---3---|
|---------------------------------|
or
|---------------------------4-4-4-|
|-------------------5-5-5---------|
|---5---5---5---5-----------------|
|---------------------------------|
|-3---3---3---3---3---3---3---3---|
|---------------------------------|

BRIDGE:
|------------|
|------------|
|------------|
|-6-6-6--4-4-|
|-6-6-6--4-4-|
|-6-6-6--4-4-|
[ Tab from: http://www.guitartabs.cc/tabs/t/taproot/now_tab.html ]
VERSE B:
|-----------------|
|-----------------|
|---5---5---5---5-|
|-----------------|
|-3---3---3---3---|
|-----------------|

BRIDGE B:
|-----------------------|
|-----------------------|
|-----------------------|
|-1---------1---------1-|
|-1---5p4---1---5p4---1-|
|-1-0-----0-1-0-----0-1-|
PM  .     .   .     .

CHORUS:
|-------------------------------------|
|-------------------------------------|
|-12-12-12-12-12-12-12-12-------------|
|-10-10-10-10-10-10-10-10--6-6-6--4-4-|
|-10-10-10-10-10-10-10-10--6-6-6--4-4-|
|-10-10-10-10-10-10-10-10--6-6-6--4-4-|

INTERLUDE:
|-----------------|    |---|
|-----------------|play|---|
|-3-3-3-3-3-3-3-3-| 6X |---|
|-3-3-3-3-3-3-3-3-|then|-5-|
|-1-1-1-1-1-1-1-1-|    |-5-|
|-1-1-1-1-1-1-1-1-|    |-5-|

FILL:
|-----------|
|-----------|
|-----------|
|-1---1---1-|
|-1---1---1-|
|-1---1---1-|
Comments