Taproot - Mine Chords & Tabs

 

Mine Chords & Tabs

Taproot Chords & Tabs

Version: 1 Type: Bass Tab 0 ratings
1 star 2 stars 3 stars 4 stars 5 stars
comments

Mine Bass Tab

artist: taproot
song: Mine
tabbed by: Cool Dude
tuning: drop a (actually for a five string, but im not that cool) a e a d

couldn't find any tabs for this one and it rocks so here goes.....
please correct this one cause i know it isn't completely right ......

D|----------------------------|
A|----------------------------|
E|-0-0-0----0-0-0-------------|
A|-0-0-0----0-0-0-------------|

  VERSE
D|-------------------------|
A|---------------5--5------|   (2X)
E|------0-3--3-5------5-3--|
A|-5--5--------------------|

  BRIDGE          
D|----------------|     
A|-----5----------|     
E|-3-5------------|     
A|--------5-5-5-5-|     

  CHORUS
D|-----------------------------|
A|-----------------------------|  (7X)
E|-----------------------------|
A|-5333353333-1--5333353333-1--|

VERSE (1X)
[ Tab from: http://www.guitartabs.cc/tabs/t/taproot/mine_btab.html ]
  VERSE 2
D|---12---12---12--------12---12---12-----|
A|----------------------------------------|
E|-11---11---11---11---10---10---10---10--|
A|----------------------------------------|


     BRIDGE 2
D|-------------------|
A|---------5---------|
E|-----3-5-----------|
A|-5---------5-5-5-5-|

CHORUS (7X)

  INTERLUDE
D|-----------------5-8-5-------------------------|
A|-----------------------5-----------------------|
E|-------5-3---------------------5-3-------------|
A|-3-6-8-----3-0-3---------3-6-8-----3-0-3-0-3-0-|

D|-----------------5-8-5-------------------------|
A|-----------------------5-----------------------|
E|-------5-3---------------------5-3-------------|
A|-3-6-8-----3-0-3---------3-6-8------3---3------|

VERSE (1X)
VERSE2 (1X)
BRIDGE2 (1X)

CHORUS (7X)

D|--------------|
A|--------------|
E|-5-5--3R------|
A|--------------|
Comments