Taproot - Like Chords & Tabs

 

Like Chords & Tabs

Taproot Chords & Tabs

Version: 2 Type: Tab 0 ratings
1 star 2 stars 3 stars 4 stars 5 stars
comments

Like Tab

   
*standard tuning

intro/verse
---------3---------3---------
-----------------------------
-----------------------------
-----------------------------
-2/3-2/3-----3---3-----------
-----------0---0-------------

bridge 1                          bridge 2
-2--1----------------------     -----2/3-3-3-2---------2/3-3-3-2--
-3--1----------------------     ----------------------------------   
-2--2----------------------     ---------------0------------------
-0--3----------------------     ---0-------------0---0------------
-0--3----------------------     -0-----------------0--------------
-0--0----------------------     ----------------------------------
[ Tab from: http://www.guitartabs.cc/tabs/t/taproot/like_tab_ver_2.html ]
chorus part A
 A    D        A                   C                     D
----HANGING BY A THREAD FOR YOUR OWNER JUST HELPS ME TO SEE INSIDE 
A
MYSELF

CHORUS PART B
   D      A                    C                     D
HANGING BY A THREAD FOR YOUR OWNER JUST HELPS ME TO SEE.


***ORDER PLAYED IN***
INTRO/VERSE 10X
BRIDGE 2X
CHORUS PART A
CHORUS PART B
INTRO/VERSE 8X
BRIDGE 1 2X
CHORUS PART A
CHORUS PART B
BRIDGE2 LISTEN TO SONG, PLAY AS NEEDED
INTRO/VERSE 6X
BRIDGE1 2X
CHORUS PART A 3X
CHORUS PART B
VERSE 8X
-END-

*TIPS*
LISTEN TO THE SONG, YOULL HEAR HOW TO PLAY IT ALL.
THATS ABOUT IT.
Comments