Taproot - I Chords & Tabs

 

I Chords & Tabs

Taproot Chords & Tabs

Version: 3 Type: Tab 0 ratings
1 star 2 stars 3 stars 4 stars 5 stars
comments

I Tab

   
Song:"I"
Artist/Band: Taproot
Album: Gift
Tabbed By: Adam Urbz
E-Mail: pickboy87@cs.com
Tune: Standard

  Intro:
E|------------------------------------------------|-----|
B|------------------------------------------------|-----|
G|------------4----------------------4------------|-----|
D|-----0-------------0-------2--------------2-----|-0-2-|
A|--2-----2-----2--------0-------0------0------0--|-0-0-|
E|------------------------------------------------|-----|

  Verses:
E|------------------------------------------------|
B|------------------------------------------------|
G|--------4-------4---------------4-------4-------|
D|----0-------0------0-2------2-------2------0-2--|
A|--2---2---2---2----2-2----0---0---0---0----0-0--|
E|------------------------------------------------|
[ Tab from: http://www.guitartabs.cc/tabs/t/taproot/i_tab_ver_3.html ]
  Pre-Verse:
E|------------------------------------------------|
B|------------------------------------------------|
G|*-4-4-4-4-4-4-4-4-4-4-4-4-4-4-4-4-4-4-4-4-4----*|
D|*-4-4-4-4-4-4-4-4-4-4-2-2-2-2-2-2-2-2-2-2-2----*|
A|--2-2-2-2-2-2-2-2-2-2-0-0-0-0-0-0-0-0-0-0-0-----|
E|--2-2-2-2-2-2-2-2-2-2-0-0-0-0-0-0-0-0-0-0-0-----|

  Chorus:(b = slight bend)
E|------------------------------------------------|
B|------------------------------------------------|
G|*-4-4-4-4-4--7-7-7-7-7b---2-2-2-2-2--2-4-6-4---*|
D|*-4-4-4-4-4--x-x-x-x-x----2-2-2-2-2--x-x-x-x---*|
A|--2-2-2-2-2--5-5-5-5-5b---0-0-0-0-0--0-2-4-2----|
E|--2-2-2-2-2-------------------------------------|

  Post-Chorus:
E|------------------------------------------------|
B|------------------------------------------------|
G|*-4-4-4-4-4--7-7-7-7-7-------------------------*|
D|*-4-4-4-4-4--7-7-7-7-7--7-7-7-7-7--4-4-4-4-4---*|
A|--2-2-2-2-2--5-5-5-5-5--7-7-7-7-7--4-4-4-4-4----|
E|--2-2-2-2-2--5-5-5-5-5--5-5-5-5-5--2-2-2-2-2----|


That's it! I'm pretty sure this is correct. But, if I forgot
a part or something,e-mail me. Thanx.
 
Comments