Taproot - Facepeeler Chords & Tabs

 

Facepeeler Chords & Tabs

Taproot Chords & Tabs

Version: 1 Type: Bass Tab

Facepeeler Bass Tab

   
taproot - facepeeler

bass tab

by : doky 2006
taquilleros_de_sudamerica_maroyu_el_grupo_tropical_del_momento@hotmail.com

5-stringed bass
G D A E B

intro

|----------|--------|              |--------|
|----------|--------|              |--------|
|----------|----000-|    variacion |--------|
|----------|-222----|              |-222----|
|-1-1-2xx2-|--------|              |----333-|

verso
	 1		   2
|-----------------|-----------------|
|----2-2-5h6p5----|----2h3p2-5-5----|
|-3-3---------7-4-|-3-3---------7-4-|
|-----------------|-----------------|
|-----------------|-----------------|

variacion de verso

|-----------------|
|--------5h6p5----|
|-3-3---------7-4-|
|----0-0----------|
|-----------------|

coro

|----------|--------|
|----------|--------|
|----------|--------|
|----------|-222----|
|-1-1-2xx2-|----333-|

[ Tab from: http://www.guitartabs.cc/tabs/t/taproot/facepeeler_btab.html ]
|------------------------|
|------------------------|
|------------------------|
|-0000000000-------------|
|-----------111111111111-|

middle
	  1		        2
|-----2/5-3-----------|----2/5-3-----------|
|---1------555----3---|--1------555--------|
|-3-----------3-------|-3----------3---1---|
|---------------------|--------------------|
|---------------------|--------------------|
		    x1			 x3

Break

|-------------|
|-------------|
|-------------|
|-------------|
|-11-11-11-11-|

|-------------------|---------3h5-3----|
|-------------------|--------------565-|
|-------------------|------------------|
|----xx-4----2/4-2--|----xx-4----------|
|-11------11------4-|-11---------------|

quiero recordar a cualquier cuate de mi curso de 4to qb promocion 2004 tm que lea esto 
este viernes estoy organizando una fiesta en el peņa show sensacional y que me llamen 
mas informacion, ademas deben llevar cervezas en grupos de 2 personas y el chuper tiene
que llevar su guitar para cantar "cabeza amigo".

doky 2006