Taproot - Come Back Chords & Tabs

 

Come Back Chords & Tabs

Taproot Chords & Tabs

Version: 1 Type: Bass Tab

Come Back Bass Tab

   
Taproot - Comeback

Intro:
G|--------------|--------------|--------------|--------------|
D|--------------|--------------|--------------|--------------|
A|--------------|--------------|--------------|--------------|
E|--------------|--------------|--------------|--------------|
A|-0~-----------|--------------|-12~----------|-10h12~-------|

G|--------------|--------------|
D|--------------|--------------|
A|--------------|--------------|
E|--------------|-------5------|x2
A|-0--4--7--4---|-5--8-----8---|

Verse: 
G|-6~-----------|-7~-----------|
D|--------------|--------------|
A|-4~-----------|-5~-----------|
E|--------------|--------------|x2
A|--------------|--------------|

Pre-chorus:
G|------------------|------------------|------------------|------------------|
D|------------------|------------------|------------------|------------------|
A|------------------|-4--44---5--55----|------------------|-4--44---5--55----|
E|-----5~------5----|------------------|-----5~------5----|------------------|
A|------------------|------------------|------------------|------------------|

G|------------------|------------------|------------------|------------------|
D|------------------|------------------|------------------|------------------|
A|------------------|------------------|------------------|-4--44---5--55----|
E|-----5~------5----|------------------|-----5~------5----|------------------|
A|------------------|-4--44---5--55----|------------------|------------------|
[ Tab from: http://www.guitartabs.cc/tabs/t/taproot/come_back_btab.html ]
Chorus: COMEBACK!!......To meee!
G|------------------|------------------|
D|------------------|------------------|
A|------------------|------------------|
E|------------------|------------------|x4
A|-760.----1---4-4--|-0--00---5--55----|

Verse: x8
Pre-chorus:
Other Verse:
G|------------------|------------------|------------------|------------------|
D|------------------|------------------|------------------|------------------|
A|------------------|-4--44---5--55----|------------------|-4--44---5--55----|
E|-3-h-5-5-55--5----|------------------|-3-h-5-5-55--5----|------------------|
A|------------------|------------------|------------------|------------------|

G|------------------|------------------|------------------|------------------|
D|------------------|------------------|------------------|------------------|
A|------------------|------------------|------------------|-4--44---5--55----|
E|-3-h-5-5-55--5----|------------------|-3-h-5-5-55--5----|------------------|
A|------------------|-4--44---5--55----|------------------|------------------|

Chorus:
Bridge:
G|------------------|------------------|------------------|------------------|
D|------------------|------------------|------------------|------------------|
A|------------------|------------------|------------------|------------------|
E|------------------|------------------|------------------|------------------|
A|-0~---------------|-0~---------------|-0~---------------|-0~---------------|

G|--------------|
D|--------------|
A|--------------|
E|--------------|x8
A|-01-101-141-1-|

Chorus: x8