Taproot - Breathe Chords & Tabs

 

Breathe Chords & Tabs

Taproot Chords & Tabs

Version: 1 Type: Tab 0 ratings
1 star 2 stars 3 stars 4 stars 5 stars
comments

Breathe Tab

   
Band- Taproot
Song- Breathe

 Tuning: B F# D A E A

      Another great song by Taproot. Check it out:

Intro:
|----------------------------------|
|-----9-9-9-9-10-10-10-10----------|
|-----9-9-9-9-9--9--9--9-----------|
|----------------------------------|
|----------------------------------|
|----------------------------------|

Verse:
|--------------------------------------------------------|
|---------------------------11-11-9----------------------|
|---2--------------------2-------------------------------|
|---2-----5-----8--------2---------------5---------------|
|---0---5-----8----------0-------------5---5-------------|
|-----5-----8-----5------------------5-------5-----------|
[ Tab from: http://www.guitartabs.cc/tabs/t/taproot/breathe_tab.html ]
Chorus:
|---------------------------------------------------------------------|
|---------------------------------------------------------------------|
|----------12/13\12---------------------7-7/12------------7-7/12------|
|---7-7-7------------8-8-8--8--10-10-10---------10-10-10--------------|
|---7-7-7--10/11\10--8-8-8--8--10-10-10-5-5/10--10-10-10--5-5/10------|
|---7-7-7------------8-8-8--8--10-10-10---------10-10-10--------------|

Bridge:
|----------------------------------------------------|
|----------------------------------------------------|
|---2-2-2-2-2-2-2-2--5-5-5-5-------------------------|
|---2-2-2-2-2-2-2-2--5-5-5-5--5-5-5-5----------------|
|---0-0-0-0-0-0-0-0--3-3-3-3--5-5-5-5----------------|
|-----------------------------5-5-5-5----------------|

Last chorus:  3x-chorus riff , and then:
|---------------------------------------------------------|
|---------------------------------------------------------|
|----------12/13\12---------------------------------------|
|---7-7-7------------8-8-8--8--10-10-10--10-10-10---------|
|---7-7-7--10/11\10--8-8-8--8--10-10-10--10-10-10---------|
|---7-7-7------------8-8-8--8--10-10-10--10-10-10---------|

End on:
|------------------|
|------------------|
|---2--------------|
|---2---let ring---|
|---0--------------|
|------------------|
Comments