Taproot - Believed Chords & Tabs

 

Believed Chords & Tabs

Taproot Chords & Tabs

Version: 1 Type: Tab 0 ratings
1 star 2 stars 3 stars 4 stars 5 stars
comments

Believed Tab

   
Song: "Believed"
Artist: Taproot
Album: Gift
Transcribed By: Bryan Bramlett (bryanmb87@aol.com)

Tuning: (A,E,A,D,G,B)

INTRO: (w/ tremolo effect)
|------------------------------------|
|------------------------------------|
|---9-----9----9-----9----9-----9----|
|-------7----------7----------7---10-|
|-7---5------7---5------7---5-----10-|
|---------------------------------10-|

VERSE: (w/ effect)
|----13-12-12-----------12-----|
|-14----12-----12----12-----12-|
|-----------------14-----------|
|------------------------------|
|------------------------------|
|------------------------------|
[ Tab from: http://www.guitartabs.cc/tabs/t/taproot/believed_tab.html ]
CHORUS:
|-----------------------------------------------------------|
|-------4-----------------4-------------------4-/6--6-6-6-6-|
|-------4-----------------4-------------------4--X--X-X-X-X-|
|-2-2-2-2-2-0--0-0--2-2-2-2-2-0--0-0--2-2-2-2-2-/4--4-4-4-4-|
|-2-2-2-2-2-0--0-0--2-2-2-2-2-0--0-0--2-2-2-2-2-------------|
|-2-2-2-2-2-0--0-0--2-2-2-2-2-0--0-0--2-2-2-2-2-------------|

|--------------------|
|--------------------|
|-5--5-5-5-5-5-5-5-5-|
|-5--5-5-5-5-5-5-5-5-|
|-3--3-3-3-3-3-3-3-3-|
|--------------------|

INTRO B:
|-------------------------|
|-------------------------|
|-------------------------|
|-10-10-10-10-10-10-10-10-|
|-10-10-10-10-10-10-10-10-|
|-10-10-10-10-10-10-10-10-|

INTERLUDE:
|---------------------------------|
|---------------------------------|
|---------------------------------|
|---------------------------------|
|-0-0-0-0-1/2-0-0-0-2/3-0-0-0-1/2-|
|-0-0-0-0-1/2-0-0-0-2/3-0-0-0-1/2-|
PM. . . .     . . .     . . .

INTERLUDE 2:
|---------------------------------|
|---------------------------------|
|---------------------------------|
|---------------------------------|
|-0-0-0-0-1/2-0-0-0-2/3-0-0-0-1/2-|
|-0-0-0-0-1/2-0-0-0-2/3-0-0-0-1/2-|
Comments