Tapioca Fugitive - Nothing Better Chords & Tabs

 

Nothing Better Chords & Tabs

Tapioca Fugitive Chords & Tabs

Version: 1 Type: Tab 0 ratings
1 star 2 stars 3 stars 4 stars 5 stars
comments

Nothing Better Tab

Song: Nothing Better
Artist: Tapioca Fugitive
[ Tab from: http://www.guitartabs.cc/tabs/t/tapioca_fugitive/nothing_better_tab.html ]
Intro
e----------------------------------------------------------------------
B----------3-----------------3-----------------3-----------------3-----
G-------0-----0-----------0-----0-----------0-----0-----------0-----0--
D----2-----------2-----2-----------2-----2-----------2-----2----------2
A-------------------------------------3-----------------0--------------
E-3-----------------3--------------------------------------------------

Verse and Chorus
e---3-----0-----0-----0-----
B---3-----1-----0-----0-----                                     
G---0-----0-----0-----2-----        
D---0-----2-----2-----2-----                                           
A---2-----3-----2-----0-----
E---3-----0-----0-----0-----
Comments