Tapioca Fugitive - Nothing Better Chords & Tabs

 

Nothing Better Chords & Tabs

Tapioca Fugitive Chords & Tabs

Version: 1 Type: Bass Tab 0 ratings
1 star 2 stars 3 stars 4 stars 5 stars
comments

Nothing Better Bass Tab

Artist: Tapioca Fugitive
Song Title: Nothing Better
[ Tab from: http://www.guitartabs.cc/tabs/t/tapioca_fugitive/nothing_better_btab.html ]
INTRO
(Note) you hit the note as the guitar plays it
E---3----------------3----------------------------------------------|
A------------------------------------3---------------0--------------|
D-------------------------------------------------------------------|
G-------------------------------------------------------------------|

Chours/verse
(Note)the rhythm is down stroke/down stroke/down stoke /up stoke
E--3----3-----33--------------------0------0------00--------------|
A-------------------3---3----33-----------------------0----0--00--|
D-----------------------------------------------------------------|
G-----------------------------------------------------------------|
Comments