Tapioca Fugitive - Jeffrey Chords & Tabs

 

Jeffrey Chords & Tabs

Tapioca Fugitive Chords & Tabs

Version: 1 Type: Tab 0 ratings
1 star 2 stars 3 stars 4 stars 5 stars
comments

Jeffrey Tab

Intro
e------------------------------------------------------------------
B------------------------------------------------------------------
G--------9--------9--6--7--------7--4--6---------7--4--2---2--2----
D----7----------7--------------7----------------7----------0--0----
A--7----------7--------------7---------------7-------------0--0----
E------------------------------------------------------------------
[ Tab from: http://www.guitartabs.cc/tabs/t/tapioca_fugitive/jeffrey_tab.html ]
Verse/Chorus
e---------------------------------------------------------------------
B---------------------------------------------------------------------
G----5-5-5-5-5-5-5-5-5------------------------------------------------
D----5-5-5-5-5-5-5-5-5-5-5-5-5-5-5-5-5-5-7-7-7-7-7-7-7-7-7-3-3-3-3-3-3
A----3-3-3-3-3-3-3-3-3-5-5-5-5-5-5-5-5-5-7-7-7-7-7-7-7-7-7-3-3-3-3-3-3
E----------------------3-3-3-3-3-3-3-3-3-5-5-5-5-5-5-5-5-5-1-1-1-1-1-1

Outro
e------------------------------------------------------------------
B------------------------------------------------------------------
G----5—5--5--------------------------------------------------------
D----5—5--5--5--5--5--7--7--7--3--3--3-----------------------------
A----3—3--3--5--5--5--7--7--7--3—-3--3-----------------------------
E------------3--3--3--5--5--5--1--1--1-----------------------------
Comments