Tantric - Revillusion Chords & Tabs

 

Revillusion Chords & Tabs

Tantric Chords & Tabs

Version: 1 Type: Tab 0 ratings
1 star 2 stars 3 stars 4 stars 5 stars
comments

Revillusion Tab

Author/Artist: Tantric 
Title: Revillusion 
Album: Tantric 
Transcribed by: Tim Barr
[ Tab from: http://www.guitartabs.cc/tabs/t/tantric/revillusion_tab.html ]
Verse  Something in this world... 
----------------|-------------------|----------------------------------------- 
----------------|-------------------|----------------------------------------- 
--6---6---6---4-|--6---6---6--------|---6-4----------------------------------- 
---6-6-----6-6--|---6-6-----6-------|-------4--------------------------------- 
-4--4----4--4---|-4--4----4--4p2-2--|-4-------4------------------------------- 
----------------|-----------------4-|----------------------------------------- 
                                                                               
Chorus 
------------------------------|----------------------------------------------- 
------------------------------|----------------------------------------------- 
---------------4--------------|-------------4--------------------------------- 
-666-----------4--------------|-6-----------4--------------------------------- 
-444-42242-42242-422422-422---|-4-42242-42242-422422-422---------------------- 
---------------------------4--|-------------------------4--------------------- 
                                                                               
Solo 
2x                              1x           1x              4x 
-----------------|-------------|------------|---------------|----------------- 
-----------------|-------------|----------7-|-------------7-|----------------- 
-----------------|----------4--|-6-999-969--|-6-999-9p6-69--|---9h11-9-------- 
-----------------|--------46---|------------|---------------|-11-------------- 
-4-----2--222----|-447--47-----|------------|---------------|----------------- 
-----------------|-------------|------------|---------------|----------------- 
                                                                               
1x @2:24 
------|----------------------------------------------------------------------- 
------|----------------------------------------------------------------------- 
------|----------------------------------------------------------------------- 
-2-2--|----------------------------------------------------------------------- 
--4-4-|----------------------------------------------------------------------- 
------|-----------------------------------------------------------------------

Comments